Blind Blake - Ditty Wah Ditty Chords & Tabs

 

Ditty Wah Ditty Chords & Tabs

Blind Blake Chords & Tabs

Version: 2 Type: Tab 0 ratings
1 star 2 stars 3 stars 4 stars 5 stars
comments

Ditty Wah Ditty Tab

   
#----------------------------------PLEASE NOTE---------------------------------#
#This file is the author's own work and represents their interpretation of the #
#song. You may only use this file for private study, scholarship, or research. #
#------------------------------------------------------------------------------##
From: Alan Cork
Date: 22 Jul 1995 23:09:17 GMT


Here's music for "Ditty Wah Ditty" by Blind Blake. In measure 10 there is 1 quarter note and 6
eigth-notes -- I guess you can space them as you like, but I generally make the 'c' note my
quarter note.

Would anyone have Ry Cooder's arrangement of this song from Paradise and Lunch?

C        G7               C
-0---0----1---3------|--------------------------------|
------------------------|-----1---1---1---------------|
------------------------|-----------------------------|
------2------------0---|---------2-----------2--------|
-3----------------------|----3-----------3------------|
------------3-----------|-----------------------------|


C        G7               C7
-0---0----1---3------|----------------------------------|
------------------------|-----1---1-----------1---------|
------------------------|--------------3----------------|
-----2------------0---|----------2---------------2------|
-3---------------------|-----3-----------3--------------|
------------3----------|--------------------------------|

[ Tab from: http://www.guitartabs.cc/tabs/b/blind_blake/ditty_wah_ditty_tab_ver_2.html ]
F
--------------------------|-------------------------------|
-----3-------1---3------|---3---3-------1---3-------------|
---------2----------------|------------2------------------|
-----3---------------3---|-------3---------------3--------|
---------------------------|------------------------------|
-1-----------1-----------|---1-----------1----------------|


C
-----3-------0---3-------|---3-------0---3----------------|
---------1----------------|-------1-----------------------|
---------------------------|------------------------------|
-----2---------------2----|-----------2-----------2-------|
-3-----------3------------|---3---------------3-----------|
---------------------------|------------------------------|


G            G7
-----3--------1---3-------|-------0-------0---------------------|
---------0-----------------|---4-------4-------1----------------|
----------------------------|-----------------------2---0-------|
-----0----------------0---|-------------------------------------|
----------------------------|-----------------------------------|
-3------------3-----------|-------------------------------------|


C        G7               C
----------1-------0---|--------------------------------|
-1------------3-------|----1---1---1-------------------|
------------------------|--------------------------*---|
-----2------------0---|---------2-----------2---*------|
-3---------------------|----3-----------3--------------|
----------3------------|-------------------------------|

Correspondence welcome.

==============================
Alan Cork (alcork@.onlink.net)
North Bay, Ontario
Comments