Blessid Union Of Souls - Story Book Life Chords & Tabs

 

Story Book Life Chords & Tabs

Blessid Union Of Souls Chords & Tabs

Version: 1 Type: Bass Tab 0 ratings
1 star 2 stars 3 stars 4 stars 5 stars
comments

Story Book Life Bass Tab

@!----------------------------------PLEASE NOTE----------------------------------!@
@! This file is the author's own work and represents their interpretation of the !@
@! song. You may only use this file for private study, scholarship, or research. !@
@!-------------------------------------------------------------------------------!@


Blessed Union Of Souls - Story Book Life

[ Tab from: http://www.guitartabs.cc/tabs/b/blessid_union_of_souls/story_book_life_btab.html ]
O-k , the bass tab are as follow , Good Luck..,   ^_^  (j o - z)

Intro / Chorus

 |--3--5--------3---------|   E
 |--------2--3-----5--3---|   A
 |------------------------|   D
 |------------------------|   G


Verse

 |--3----------5-------------|
 |----5--3--2--------5-7-----|
 |---------------2-----------|
 |---------------------------|

Play the verse  again & again .
Comments