Blessid Union Of Souls - Light In Your Eyes Complete Chords & Tabs

 

Light In Your Eyes Complete Chords & Tabs

Blessid Union Of Souls Chords & Tabs

Version: 1 Type: Tab 0 ratings
1 star 2 stars 3 stars 4 stars 5 stars
comments

Light In Your Eyes Complete Tab

"Light In Your Eyes" -Blessid Union of Souls

I did this piece on Monday, October 27, 2003 between
7PM and 11:15PM. I dedicate this song to "my lil freshmen,"
or in other words, the girl that I love more than anything.

Tabbed by: Brett Hodgkinson
email at: bretters_h@hotmail.com

Standard Tuning

INTRODUCTION
E|-----------|-4-4--2--|}
B|-4-4--5-5--|-4-4--2--|}
G|-4-4--4-4--|-4-4--3--|}
D|-1-1--2-2--|-6-6--4--|} X6
A|-----------|---------|}
E|-----------|---------|}

VERSE RIFF #1
E|-6--6-6-6-6-6-|-4--4-4-4-4-4-|--------------|-2--2-2-2-2-2-|
B|-7--7-7-7-7-7-|-5--5-5-5-5-5-|-5--5-5-5-5-5-|-2--2-2-2-2-2-|
G|-6--6-6-6-6-6-|-4--4-4-4-4-4-|-4--4-4-4-4-4-|-3--3-3-3-3-3-|
D|-8--8-8-8-8-5-|-6--6-6-6-6-6-|-2--2-2-2-2-2-|-4--4-4-4-4-4-|
A|--------------|--------------|--------------|--------------|
E|--------------|--------------|--------------|--------------|

VERSE RIFF #2
E|-6--6-6-6-6-6-|-4--4-4-4-4-4-|-1--1-1-1-1-1-|-0----2----|
B|-7--7-7-7-7-7-|-5--5-5-5-5-5-|-2--2-2-2-2-2-|-0----3----|
G|-6--6-6-6-6-6-|-4--4-4-4-4-4-|-1--1-1-1-1-1-|-1----2----|
D|-8--8-8-8-8-5-|-6--6-6-6-6-6-|-3--3-3-3-3-3-|-2----4----|
A|--------------|--------------|--------------|-2---------|
E|--------------|--------------|--------------|-0---------|

Repeat Introduction 4x
Verse Riff #1
Verse Riff #2

CHORUS
E|----------|----------|----------|----------|}
B|----------|-4--4-4-4-|-5--5-5-5-|-7--7-7-7-|}
G|-4--4-4-4-|-3--3-3-3-|-4--4-4-4-|-6--6-6-6-|}
D|-4--4-4-4-|-1--1-1-1-|-2--2-2-2-|-4--4-4-4-|} X3
A|-2--2-2-2-|----------|----------|----------|}
E|----------|----------|----------|----------|}
[ Tab from: http://www.guitartabs.cc/tabs/b/blessid_union_of_souls/light_in_your_eyes_complete_tab.html ]
E|---------------|-----------------|
B|-4-4-4---------|---4-----4-------|
G|-3-3-3--4-4-4--|-4-3-4-4-3-4-4-4-|
D|--------4-4-4--|-4---4-4---4-4-4-|
A|--------2-2-2--|-2---2-2---2-2-2-|
E|---------------|-----------------|

Introduction 6x
Verse Riff #1
Verse Riff #2
Chorus

SOLO #1
E|-----------------------------------------------------------------------------------|
B|-12-12-12-12-11-9---9-9-9-9-7-5-4---2---12-12-12-12-11-9---9-9-9-9-7-5-6---5---7---|
G|-----------------------------------------------------------------------------------|
D|-----------------------------------------------------------------------------------|
A|-----------------------------------------------------------------------------------|
E|-----------------------------------------------------------------------------------|

SOLO #2
E|----------------------------|}
B|-4---4-4-4-2----------------|}
G|-------------4-2---2-2-1----|}
D|-------------------------4--|} X3
A|----------------------------|}
E|----------------------------|}

(Quietly)
E|-------2--4-|
B|-4--5--2--4-|
G|-4--4--3--4-|
D|-1--2--4--6-|
A|------------|
E|------------|

Introduction 4x
Verse Riff #1

Outro
E|-6--6-6-6-6-6-|-4--4-4-4-4-4-|-1-------|
B|-7--7-7-7-7-7-|-5--5-5-5-5-5-|-2-------|
G|-6--6-6-6-6-6-|-4--4-4-4-4-4-|-1-------|
D|-8--8-8-8-8-5-|-6--6-6-6-6-6-|-3-------|
A|--------------|--------------|---------|
E|--------------|--------------|---------|

(Quietly)

E|-------2----|-------2----|-------2--4-|-------2----|-------4--2----|
B|-4--5--2--5-|-4--5--2--5-|-4--5--2--4-|-4-----2--5-|-4--5--4--2--4-|
G|-4--4--3--4-|-4--4--3--4-|-4--4--3--4-|-4-----3--4-|-4--4--4--3--4-|
D|-1--2--4--2-|-1--2--4--2-|-1--2--4--6-|-1-----4--2-|-1--2--6--4--1-|
A|------------|------------|------------|------------|---------------|
E|------------|------------|------------|------------|---------------|
Comments