Blessid Union Of Souls - Hey Leonardo Chords & Tabs

 

Hey Leonardo Chords & Tabs

Blessid Union Of Souls Chords & Tabs

Version: 3 Type: Tab 0 ratings
1 star 2 stars 3 stars 4 stars 5 stars
comments

Hey Leonardo Tab

   
Artist: Blessid Union Of Souls
   Album: Walking Off The Bus
   Song: Hey Leonardo (She Likes Me For Me)

   Submitted by Steve D (sjd285@aol.com)
   --------------------------------------------------------------

   NOTE: Remember to view in Courier New font so the lines match up.

   Capo 1st fret (All chords are relative to the capo)

   Verse 1
   F F G
   e|--------------------------------------------------------|
   B|--------------------------------------------------------|
   G|-------2-----------2-----------4------------------------|
   D|-------3-----------3-----------5------------------------|
   A|-------3-----------3-----------5---------3-0-5-3-0------|
   E|-1--1--1-----1--1--1-----3--3--3-----3-5-----------3----|

   F F G 
   e|--------------------------------------------------------|
   B|--------------------------------------------------------|
   G|-------2-----------2-----------4------------------------|
   D|-------3-----------3-----------5------------------------|
   A|-------3-----------3-----------5---------3-0-5/7--------|
   E|-1--1--1-----1--1--1-----3--3--3-----3-5----------------|

   F F G
   e|--------------------------------------------------------|
   B|--------------------------------------------------------|
   G|-------2-----------2-----------4-----------------2/5----|
   D|-------3-----------3-----------5-------------2-5--------|
   A|-------3-----------3-----------5---------3-5------------|
   E|-1--1--1-----1--1--1-----3--3--3-----3-5----------------|

   F F G 
   e|--------------------------------------------------------|
   B|--------------------------------------------------------|
   G|-------2-----------2-----------4--4--4------------------|
   D|-------3-----------3-----------5--5--5------------------|
   A|-------3-----------3-----------5--5--5------------------|
   E|-1--1--1-----1--1--1-----3--3--3--3--3------------------|


   Chorus
   F Am G C
   e|--------------------------------------------------------|
   B|-1-----1-x-x-x-x-1--1-x-x-3-----3-x-x-x-x-5--5-x-x------|
   G|-2-----2-x-x-x-x-2--2-x-x-4-----4-x-x-x-x-5--5-x-x------|
   D|-3-----3-x-x-x-x-2--2-x-x-5-----5-x-x-x-x-5--5-x-x------|
   A|-3-----3-x-x-x-x-0--0-x-x-5-----5-x-x-x-x-3--3-x-x------|
   E|-1-----1-x-x-x-x----------3-----3-x-x-x-x---------------|

   F Am G C
   e|--------------------------------------------------------|
   B|-1-----1-x-x-x-x-1--1-x-x-3-----3-x-x-x-x-5--5-x-x------|
   G|-2-----2-x-x-x-x-2--2-x-x-4-----4-x-x-x-x-5--5-x-x------|
   D|-3-----3-x-x-x-x-2--2-x-x-5-----5-x-x-x-x-5--5-x-x------|
   A|-3-----3-x-x-x-x-0--0-x-x-5-----5-x-x-x-x-3--3-x-x------|
   E|-1-----1-x-x-x-x----------3-----3-x-x-x-x---------------|

   F Am G C
   e|--------------------------------------------------------|
   B|-1-----1-x-x-x-x-1--1-x-x-3-----3-x-x-x-x-5--5-x-x------|
   G|-2-----2-x-x-x-x-2--2-x-x-4-----4-x-x-x-x-5--5-x-x------|
   D|-3-----3-x-x-x-x-2--2-x-x-5-----5-x-x-x-x-5--5-x-x------|
   A|-3-----3-x-x-x-x-0--0-x-x-5-----5-x-x-x-x-3--3-x-x------|
   E|-1-----1-x-x-x-x----------3-----3-x-x-x-x---------------|

   F Am/E G 
   e|--------------------------------------------------------|
   B|-1-----1-x-x-x-x-1--1-x-x-3-----3--3-3-3-3-3--3---------|
   G|-2-----2-x-x-x-x-2--2-x-x-4-----4--4-4-4-4-4--4---------|
   D|-3-----3-x-x-x-x-2--2-x-x-5-----5--5-5-5-5-5--5---------|
   A|-3-----3-x-x-x-x-0--0-x-x-5-----5--5-5-5-5-5--5---------|
   E|-1-----1-x-x-x-x-0--0-----3-----3--3-3-3-3-3--3---------|

   (Played during last G of chorus)
   e|-------------------------------|
   B|-------------------------------|
   G|-------------------------------|
   D|-------------------------------|
   A|-------------------------------|
   E|--15\-\-\-\-\-\-\-\-\-\1-------|
   Pick rapidly while sliding


   Verse 2

   F F G
   e|--------------------------------------------------------|
   B|--------------------------------------------------------|
   G|-------2-----------2-----------4------------------------|
   D|-------3-----------3-----------5------------------------|
   A|-------3-----------3-----------5---------3-0-5-3-0------|
   E|-1--1--1-----1--1--1-----3--3--3-----3-5-----------3----|

   F F G 
   e|--------------------------------------------------------|
   B|--------------------------------------------------------|
   G|-------2-----------2-----4----(4)----(4)----(4)---------|
   D|-------3-----------3-----5----(5)----(5)----(5)---------|
   A|-------3-----------3-----5----(5)----(5)----(5)---------|
   E|-1--1--1-----1--1--1-----3----(3)----(3)----(3)---------|
   (Echo- quieter each time)

   F F G
   e|--------------------------------------------------------|
   B|--------------------------------------------------------|
   G|-------2-----------2-----------4-----------------2/5----|
   D|-------3-----------3-----------5-------------2-5--------|
   A|-------3-----------3-----------5---------3-5------------|
   E|-1--1--1-----1--1--1-----3--3--3-----3-5----------------|

   F F G 
   e|--------------------------------------------------------|
   B|--------------------------------------------------------|
   G|-------2-----------2-----4------------------------------|
   D|-------3-----------3-----5------------------------------|
   A|-------3-----------3-----5------------------------------|
   E|-1--1--1-----1--1--1-----3------------------------------|


   (I can't tell if this is a guitar or a bass playing, but in the background 
   another guitar plays the chords below)
   F G
   e|--------------------------------------------------------|
   B|--------------------------------------------------------|
   G|--------------------------------------------------------|
   D|-------------------------------------0-0----------------|
   A|-------0--0--3--3--0-----------2--2-------2-------------|
   E|-1--1-----------------1--3--3----------------3----------|

   F G
   e|--------------------------------------------------------|
   B|--------------------------------------------------------|
   G|--------------------------------------------------------|
   D|-------------------------------------0-0----------------|
   A|-------0--0--3--3--0-----------2--2-------2-------------|
   E|-1--1-----------------1--3--3----------------3----------|

   F G
   e|--------------------------------------------------------|
   B|--------------------------------------------------------|
   G|--------------------------------------------------------|
   D|-------------------------------------0-0----------------|
   A|-------0--0--3--3--0-----------2--2-------2-------------|
   E|-1--1-----------------1--3--3----------------3----------|

   F G
   e|--------------------------------------------------------|
   B|--------------------------------------------------------|
   G|-------------------------------------0------------------|
   D|----------------------------------0---------------------|
   A|-------0--0--3--3--0-----------2------------------------|
   E|-1--1-----------------1--3--3---------------------------|


   Chorus
   F Am G C
   e|--------------------------------------------------------|
   B|-1-----1-x-x-x-x-1--1-x-x-3-----3-x-x-x-x-5--5-x-x------|
   G|-2-----2-x-x-x-x-2--2-x-x-4-----4-x-x-x-x-5--5-x-x------|
   D|-3-----3-x-x-x-x-2--2-x-x-5-----5-x-x-x-x-5--5-x-x------|
   A|-3-----3-x-x-x-x-0--0-x-x-5-----5-x-x-x-x-3--3-x-x------|
   E|-1-----1-x-x-x-x----------3-----3-x-x-x-x---------------|

   F Am G C
   e|--------------------------------------------------------|
   B|-1-----1-x-x-x-x-1--1-x-x-3-----3-x-x-x-x-5--5-x-x------|
   G|-2-----2-x-x-x-x-2--2-x-x-4-----4-x-x-x-x-5--5-x-x------|
   D|-3-----3-x-x-x-x-2--2-x-x-5-----5-x-x-x-x-5--5-x-x------|
   A|-3-----3-x-x-x-x-0--0-x-x-5-----5-x-x-x-x-3--3-x-x------|
   E|-1-----1-x-x-x-x----------3-----3-x-x-x-x---------------|

   F Am G C
   e|--------------------------------------------------------|
   B|-1-----1-x-x-x-x-1--1-x-x-3-----3-x-x-x-x-5--5-x-x------|
   G|-2-----2-x-x-x-x-2--2-x-x-4-----4-x-x-x-x-5--5-x-x------|
   D|-3-----3-x-x-x-x-2--2-x-x-5-----5-x-x-x-x-5--5-x-x------|
   A|-3-----3-x-x-x-x-0--0-x-x-5-----5-x-x-x-x-3--3-x-x------|
   E|-1-----1-x-x-x-x----------3-----3-x-x-x-x---------------|

   F Am G 
   e|--------------------------------------------------------|
   B|-1-----1-x-x-x-x-1--1-x-x-3-----3-----3-----3-----------|
   G|-2-----2-x-x-x-x-2--2-x-x-4-----4-----4-----4-----------|
   D|-3-----3-x-x-x-x-2--2-x-x-5-----5-----5-----5-----------|
   A|-3-----3-x-x-x-x-0--0-x-x-5-----5-----5-----5-----------|
   E|-1-----1-x-x-x-x----------3-----3-----3-----3-----------|

   F Am G C
   e|--------------------------------------------------------|
   B|-1-----1-x-x-x-x-1--1-x-x-3-----3-----------------------|
   G|-2-----2-x-x-x-x-2--2-x-x-4-----4-----------------------|
   D|-3-----3-x-x-x-x-2--2-x-x-5-----5-----------------------|
   A|-3-----3-x-x-x-x-0--0-x-x-5-----5-----------------------|
   E|-1-----1-x-x-x-x----------3-----3---15\-\-\-\-\-\-\-\-1-|
   Pick rapidly while sliding
[ Tab from: http://www.guitartabs.cc/tabs/b/blessid_union_of_souls/hey_leonardo_tab_ver_3.html ]
   F Am G D F
   e|--------------------------------------------------------|
   B|-1-----1-x-x-x-x-1--1-x-x-3-----3--7--7--7-7--1--1--1-1-|
   G|-2-----2-x-x-x-x-2--2-x-x-4-----4--7--7--7-7--2--2--2-2-|
   D|-3-----3-x-x-x-x-2--2-x-x-5-----5--7--7--7-7--3--3--3-3-|
   A|-3-----3-x-x-x-x-0--0-x-x-5-----5--5--5--5-5--3--3--3-3-|
   E|-1-----1-x-x-x-x----------3-----3-------------1--1--1-1-|

   C G D F 
   e|--------------------------------------------------------|
   B|-5-5-5-5-5------3-3-3-3-3------7--7--7-7-7-1--1--1-1-1--|
   G|-5-5-5-5-5------4-4-4-4-4------7--7--7-7-7-2--2--2-2-2--|
   D|-5-5-5-5-5------5-5-5-5-5------7--7--7-7-7-3--3--3-3-3--|
   A|-3-3-3-3-3------5-5-5-5-5----- 5--5--5-5-5-3--3--3-3-3--|
   E|----------------3-3-3-3-3------------------1--1--1-1-1--|

   D
   e|-7--7--7-7-7-7--7--7-7-7--------------------------------|
   B|-7--7--7-7-7-7--7--7-7-7--------------------------------|
   G|-7--7--7-7-7-7--7--7-7-7--------------------------------|
   D|-7--7--7-7-7-7--7--7-7-7--------------------------------|
   A|-5--5--5-5-5-5--5--5-5-5--------------------------------|
   E|--------------------------------------------------------|


   Harmonica Solo
   C F Am F
   e|--------------------------------------------------------|
   B|-5-----5-x-x-x-x-1--1-x-x-1-----1-x-x-x-x-1--1-x-x------|
   G|-5-----5-x-x-x-x-2--2-x-x-2-----2-x-x-x-x-2--2-x-x------|
   D|-5-----5-x-x-x-x-3--3-x-x-2-----2-x-x-x-x-3--3-x-x------|
   A|-3-----3-x-x-x-x-3--3-x-x-0-----0-x-x-x-x-3--3-x-x------|
   E|-----------------1--1-x-x-----------------1--1-x-x------|

   C F Am G
   e|--------------------------------------------------------|
   B|-5-----5-x-x-x-x-1--1-x-x-1-----1-x-x-x-x-3--3-x-x------|
   G|-5-----5-x-x-x-x-2--2-x-x-2-----2-x-x-x-x-4--4-x-x------|
   D|-5-----5-x-x-x-x-3--3-x-x-2-----2-x-x-x-x-5--5-x-x------|
   A|-3-----3-x-x-x-x-3--3-x-x-0-----0-x-x-x-x-3--5-x-x------|
   E|-----------------1--1-x-x-----------------3--3-x-x------|

   C F Am G
   e|--------------------------------------------------------|
   B|-5-----5-x-x-x-x-1--1-x-x-1-----1-x-x-x-x-1--1-x-x------|
   G|-5-----5-x-x-x-x-2--2-x-x-2-----2-x-x-x-x-2--2-x-x------|
   D|-5-----5-x-x-x-x-3--3-x-x-2-----2-x-x-x-x-3--3-x-x------|
   A|-3-----3-x-x-x-x-3--3-x-x-0-----0-x-x-x-x-3--3-x-x------|
   E|-----------------1--1-x-x-----------------1--1-x-x------|

   C Am G
   e|--------------------------------------------------------|
   B|-5-----5-x-x-x-x-1--1-x-x-3-----------------------------|
   G|-5-----5-x-x-x-x-2--2-x-x-4-----------------------------|
   D|-5-----5-x-x-x-x-2--2-x-x-5-----------------------------|
   A|-3-----3-x-x-x-x-0--0-x-x-5-----------------------------|
   E|----------------------x-x-3-----------------------------|

   Chorus
   F G F G
   e|------1---------------------1---------------------------|
   B|-----1---------------------1----------------------------|
   G|----2-----------4^--------2----2----------7----5----4---|
   D|---3---------------5-----3----------------5----5----5---|
   A|--3---------------------3-------------------------------|
   E|-1----------3----------1----------3~--------------------|

   F G F G
   e|------1----------------------1-----------3--------------|
   B|-----1----------------------1-----------3---------------|
   G|----2----2^------4^--------2-----------4----------------|
   D|---3-----3^---------5-----3----3------5-----------------|
   A|--3----------------------3------------------------------|
   E|-1-----------3----------1-------------------------------|

   Am G Am G
   e|-------------0----3---------------0----3----------------|
   B|-------------1----3---------------1----3----------------|
   G|-------------2----4---------------2----4----------------|
   D|-------------2----5---------------2----5----------------|
   A|-------------0----5---------------0----5----------------|
   E|------------------3--------------------3----------------|
   (Bass plays F) (Bass plays F) 


   Chorus
   F Am G C
   e|--------------------------------------------------------|
   B|-1-----1-x-x-x-x-1--1-x-x-3-----3-x-x-x-x-5--5-x-x------|
   G|-2-----2-x-x-x-x-2--2-x-x-4-----4-x-x-x-x-5--5-x-x------|
   D|-3-----3-x-x-x-x-2--2-x-x-5-----5-x-x-x-x-5--5-x-x------|
   A|-3-----3-x-x-x-x-0--0-x-x-5-----5-x-x-x-x-3--3-x-x------|
   E|-1-----1-x-x-x-x----------3-----3-x-x-x-x---------------|

   F Am G C
   e|--------------------------------------------------------|
   B|-1-----1-x-x-x-x-1--1-x-x-3-----3-x-x-x-x-5--5-x-x------|
   G|-2-----2-x-x-x-x-2--2-x-x-4-----4-x-x-x-x-5--5-x-x------|
   D|-3-----3-x-x-x-x-2--2-x-x-5-----5-x-x-x-x-5--5-x-x------|
   A|-3-----3-x-x-x-x-0--0-x-x-5-----5-x-x-x-x-3--3-x-x------|
   E|-1-----1-x-x-x-x----------3-----3-x-x-x-x---------------|

   F Am G C
   e|--------------------------------------------------------|
   B|-1-----1-x-x-x-x-1--1-x-x-3-----3-x-x-x-x-5--5-x-x------|
   G|-2-----2-x-x-x-x-2--2-x-x-4-----4-x-x-x-x-5--5-x-x------|
   D|-3-----3-x-x-x-x-2--2-x-x-5-----5-x-x-x-x-5--5-x-x------|
   A|-3-----3-x-x-x-x-0--0-x-x-5-----5-x-x-x-x-3--3-x-x------|
   E|-1-----1-x-x-x-x----------3-----3-x-x-x-x---------------|

   F Am/E G 
   e|--------------------------------------------------------|
   B|-1-----1-x-x-x-x-1--1-x-x-3-----3--3-3-3-3-3--3---------|
   G|-2-----2-x-x-x-x-2--2-x-x-4-----4--4-4-4-4-4--4---------|
   D|-3-----3-x-x-x-x-2--2-x-x-5-----5--5-5-5-5-5--5---------|
   A|-3-----3-x-x-x-x-0--0-x-x-5-----5--5-5-5-5-5--5---------|
   E|-1-----1-x-x-x-x-0--0-----3-----3--3-3-3-3-3--3---------|

   F Am G G
   e|--------------------------------------------------------|
   B|-1-----1-x-x-x-x-1--1-x-x-3-----3-x-x-x-x-3--3-x-x------|
   G|-2-----2-x-x-x-x-2--2-x-x-4-----4-x-x-x-x-4--4-x-x------|
   D|-3-----3-x-x-x-x-2--2-x-x-5-----5-x-x-x-x-5--5-x-x------|
   A|-3-----3-x-x-x-x-0--0-x-x-5-----5-x-x-x-x-5--5-x-x------|
   E|-1-----1-x-x-x-x----------3-----3-x-x-x-x-3--3-x-x------|

   F Am G G
   e|--------------------------------------------------------|
   B|-1-----1-x-x-x-x-1--1-x-x-3-----3-x-x-x-x-3--3-x-x------|
   G|-2-----2-x-x-x-x-2--2-x-x-4-----4-x-x-x-x-4--4-x-x------|
   D|-3-----3-x-x-x-x-2--2-x-x-5-----5-x-x-x-x-5--5-x-x------|
   A|-3-----3-x-x-x-x-0--0-x-x-5-----5-x-x-x-x-5--5-x-x------|
   E|-1-----1-x-x-x-x----------3-----3-x-x-x-x-3--3-x-x------|

   (Played during last G of chorus)
   e|-------------------------------|
   B|-------------------------------|
   G|-------------------------------|
   D|-------------------------------|
   A|-------------------------------|
   E|--15\-\-\-\-\-\-\-\-\-\1-------|
   Pick rapidly while sliding

   F Am G G
   e|--------------------------------------------------------|
   B|-1-----1-x-x-x-x-1--1-x-x-3-----3-x-x-x-x-3--3-x-x------|
   G|-2-----2-x-x-x-x-2--2-x-x-4-----4-x-x-x-x-4--4-x-x------|
   D|-3-----3-x-x-x-x-2--2-x-x-5-----5-x-x-x-x-5--5-x-x------|
   A|-3-----3-x-x-x-x-0--0-x-x-5-----5-x-x-x-x-5--5-x-x------|
   E|-1-----1-x-x-x-x----------3-----3-x-x-x-x-3--3-x-x------|

   F Am/E G 
   e|--------------------------------------------------------|
   B|-1-----1-x-x-x-x-1--1-x-x-3-----3-----3-----------------|
   G|-2-----2-x-x-x-x-2--2-x-x-4-----4-----4-----------------|
   D|-3-----3-x-x-x-x-2--2-x-x-5-----5-----5-----------------|
   A|-3-----3-x-x-x-x-0--0-x-x-5-----5-----5-----------------|
   E|-1-----1-x-x-x-x-0--0-x-x-3-----3-----3-----------------|

   (Played during last G of chorus)
   e|-------------------------------|
   B|-------------------------------|
   G|-------------------------------|
   D|-------------------------------|
   A|-------------------------------|
   E|--15\-\-\-\-\-\-\-\-\-\3-------|
   Pick rapidly while sliding


   Lyrics-

   She don't care about my car
   And she don't care about my money
   And that's real good because I don't got alot to spend
   But if I did it wouldn't mean nothin'

   She likes me for me
   Not because I look like Tyson Beckford
   With the charm of Robert Redford
   Oozing out my ears
   But what she sees
   Are my faults and indecisions
   My insecure conditions
   And the tears upon the pillow that I shed

   She don't care about my big screen
   Or my collection of DVD's
   Things like that just never mattered much to her
   Plus she don't watch too much t.v.

   And she don't care that I can fly her
   To places she ain't never been
   But if she really wants to go
   I think deep down she knows that
   All she has to say is when

   She likes me for me
   Not because I hang with Leonardo
   Or that guy who played in "Fargo"
   I think his name is Steve
   She's the one for me
   And I just can't live without her
   My arms belong around her
   And I'm so glad I found her once again

   And I'm so glad I found her once again
   Yeah I'm so glad I found her once again
   Gazing at the ceiling
   As we entertain our feelings in the dark
   The things that we're afraid of are gonna show us
   What we're made of in the end

   She likes me for me
   Not because I sing like Pavarotti
   Or because I'm such a hottie
   I like her for her
   Not because she's phat like Cindy Crawford
   She has got so much to offer
   Why does she waste all her time with me
   There must be something there that I don't see (I don't see)

   She likes me for me
   Not because I'm tough like Dirty Hairy
   Make her laugh just like Jim Carrey
   Unlike the Cable Guy
   But what she sees
   Is that I can't live without her
   My arms belong around her
   And I'm so glad I found her once again
   Found her once again
   Once again
   Yeah I'm so glad I found her once again


   And that's it. Have fun and send me some mail if you have any corrections or 
   if you just wanna let me kow what you think.

   -Steve- 
   (sjd285@aol.com) 


            
Comments