Blessed Union Of Souls - Hey Leonardo Chords & Tabs

 

Hey Leonardo Chords & Tabs

Blessed Union Of Souls Chords & Tabs

Version: 2 Type: Tab 0 ratings
1 star 2 stars 3 stars 4 stars 5 stars
comments

Hey Leonardo Tab

Artist: Blessid Union Of Souls
Song: Hey Leonardo (She Likes Me For Me)
Tabbed by bob smith
Mail bobsyouruncle4@hotmail.com for corrections.

Standard Tuning

Verse:
|--------------------------------------------|
|--------------------------------------------|
|------3---------3-3-------------------------|
|------4--x-x-x--4-4----------6--x-x-x--6-6--|
|-4-4--4--x-x-x--4-4-----6-6--6--x-x-x--6-6--|
|-2-2--2--x-x-x--2-2-----4-6--4--x-x-x--4-4--|


During the verse,there are pickings which is played in between:
First:                Second:      Third
|--------------------|------------|---------------------------|
|--------------------|------------|---------------------------|
|--------------------|------------|----------------3ho5--5/6--|
|--------------------|-----1---1/3|-----------4ho6------------|
|-----4---6-4--------|-1/3---3----|------4h06-----------------|
|-4-6---6-----6-4/2--|------------|-4ho6----------------------|

Chorus:
|--------------------------------------------------|
|--------------------------------------------------|
|---------------3-3--x-x-----------------6-6-x-x---|
|-4-4--x-x-x-x--3-3--x-x---6-6--x-x-x-x--6-6-x-x---|
|-4-4--x-x-x-x--1-1--x-x---6-6--x-x-x-x--4-4-x-x---|
|-2-2--x-x-x-x-------------4-4--x-x-x-x------------|
[ Tab from: http://www.guitartabs.cc/tabs/b/blessed_union_of_souls/hey_leonardo_tab_ver_2.html ]
Bridge (the part where it goes "...once again.."):
|-----------------------------------------|
|-----------------------------------------|
|--8--------------------------------------|
|--8-(several times)--4-------------------|
|--6------------------4-(several times----|
|---------------------2-------------------|

The part where it goes "..gazing at the ceiling..." :
|-----------------------------------|
|-----------------------------------|
|--6-6-6-6-6------------------------|
|--6-6-6-6-6----------6-6-6-6-6-6---|
|--4-4-4-4-4----------6-6-6-6-6-6---|
|---------------------4-4-4-4-4-4---|

|-----------------------------------------------------------|
|-----------------------------------------------------------|
|--8--------------------------------------8-----------------|
|--8-(several times)--4-------------------8-(several times)-|
|--6------------------4-(several times)---6-----------------|
|---------------------2-------------------------------------|

The chords played during the trumpet solo.Is it trumpet? I'm not really sure
I think it's harmonica...anyway:
|---------------------------------------------------|
|---------------------------------------------------|
|-6-6--x-x-x-x-------x-x---3-3----------------x-x---|
|-6-6--x-x-x-x--4-4--x-x---3-3--x-x-x-x--4-4--x-x---|
|-4-4--x-x-x-x--4-4--x-x---1-1--x-x-x-x--4-4--x-x---|
|---------------2-2-------------x-x-x-x--2-2--------|

After that pick this:
|---------------------|
|---------------------|
|-------3---------5---|
|-----4---------6-----|
|---4---------6-------|
|-2---------4---------|


Lastly,play chorus again until end.
Comments