Bleeding Through - Our Enemies Chords & Tabs

 

Our Enemies Chords & Tabs

Bleeding Through Chords & Tabs

Version: 1 Type: Tab 0 ratings
1 star 2 stars 3 stars 4 stars 5 stars
comments

Our Enemies Tab

   
Palm Mute=.
Artificial Harmonic=< >
Ringing Note-()

 Intro x4
C#|----------------------||
G#|----------------------||
 E|-------------end riff-||
 B|-0-----5-------(0)----||
F#|-0-----5-------(0)----||
 B|-0-----5-------(0)----||


 Verse x4
C#|----------------------------------------------------------||
G#|----------------------------------------------------------||
 E|----------------------------------------------------------||
 B|----------------------------------------------------------||
F#|-555555-888888-777777-555555-555555-888888-777777-<8>-----||
 B|----------------------------------------------------------||

 Verse Cont.
C#|---------------------------------------------------||
G#|---------------------------------------------------||
 E|---------------------------------------------------||
 B|-888888777777555555-101010101010888888777777888888-||
F#|---------------------------------------------------||
 B|---------------------------------------------------||
[ Tab from: http://www.guitartabs.cc/tabs/b/bleeding_through/our_enemies_tab.html ]
 Pre-Chorus x4
C#|----------------------------------------------------------------||
G#|----------------------------------------------------------------||
 E|------------7---------------------------------------------------||
 B|---5--7--8-----7--3--3--5--3--2/3-------------------------------||
F#|----------------------------------------------------------------||
 B|-00-00-00-00-00-00-00-00-00-00----------------------------------||


 Chorus x2
C#|------------------------------------------------||
G#|------------------------------------------------||
 E|------------------------------------------------||
 B|------------------------------------------------||
F#|-0--3-5---7-8--0--3-5--8-7-3--------------------||
 B|-0-------------0--------------------------------||

 
 Breakdown x8
C#|----------------------------------------------------------------||
G#|----------------------------------------------------------------||
 E|----------------------------------------------------------------||
 B|----------------------------------------------------------------||
F#|-0124--0-1-2-4-2-1-0-1-2-421--0-1-2-4-2-1-0-1-2-421-------------||
 B|-0124--0-1-2-4-2-1-0-1-2-421--0-1-2-4-2-1-0-1-2-421-------------||
                                 . . . . . . . . . ...


 Breakdown 2
C#|------------------------------------------------||
G#|------------------------------------------------||
 E|------------------------------------------------||
 B|------------------------------------------------||
F#|-0-0-000-0-0-0--0-0-0--0-000--<6>---------------||
 B|-0-0-000-0-0-0--0-0-0--0-000--------------------||
    . . ... . . .  . . .  . ...

Well, thats all I know for now. I will be back sometime to tab out the solo as soon 
a I figure the rest of it out. Enjoy.
Comments