Bled - Sound Of Sulfur Chords & Tabs

 

Sound Of Sulfur Chords & Tabs

Bled Chords & Tabs

Version: 1 Type: Tab 0 ratings
1 star 2 stars 3 stars 4 stars 5 stars
comments

Sound Of Sulfur Tab

Sound Of Sulfur
The Bled
Pass The Flask

this is just a part of it

D-----------------------------------------------------|
A-----------------------------------------------------|
F-----------------------------------------------------|
C--2------5---------------------------2-0-------------|
G--2-----------------3--5----2-3-2-------3-2----------|
D--0--0------0--0-------------------------------------|
[ Tab from: http://www.guitartabs.cc/tabs/b/bled/sound_of_sulfur_tab.html ]
D-----------------------------------------------------|
A-----------------------------------------------------|
F-----------------------------------------------------|
G--2------5--------------------5--4-------------------|
C--2-----------------3--5-----5--4--------------------|
D--0--0------0--0------------3--2---------------------|

D-----------------------------------------------------|
A-----------------------------------------------------|
F-----------------------------------------------------|
C--2------5---------------------------2-0-------------|
G--2-----------------3--5----2-3-2-------3-2----------|
D--0--0------0--0-------------------------------------|

D----------------------------------------------------|
A----------------------------------------------------|
F--5------7-------4-------8--------------------------|
G--x------x-------x-------x--------------------------|
C--3------5-------2-------6--------------------------|
D----------------------------------------------------|
Comments