Bled - Porcelain Hearts And Hammers For Teeth Chords & Tabs

 

Porcelain Hearts And Hammers For Teeth Chords & Tabs

Bled Chords & Tabs

Version: 2 Type: Tab 0 ratings
1 star 2 stars 3 stars 4 stars 5 stars
comments

Porcelain Hearts And Hammers For Teeth Tab

   
------------------------------------------------------------------------
PORCELAIN HEARTS AND HAMMERS FOR TEETH
The Bled
------------------------------------------------------------------------
Tabbed by: tamohawk.theory.
Email: lost_cause19@hotmail.com

Tuning: EADGBe
*=palm mute
p=pull-off
h=hammer-on

  Intro
  Guitar 1 (clean)(done twice until 1:18):
e|-------13--------13--------------13-------13---------------13---------|
B|----15--------15-------15-----15-------15--------15-----15------------|
G|----------------------------------------------------------------------|
D|-12--------12-------12-----14-------14--------14-----15---------------|
A|----------------------------------------------------------------------|
E|----------------------------------------------------------------------|
   con't
e|-------13-------------13-------13-------------------------------------|
B|----15-------15----15-------15-------15-------------------------------|
G|----------------------------------------------------------------------|
D|-15-------15----15-------15-------15----------------------------------|
A|----------------------------------------------------------------------|
E|----------------------------------------------------------------------|
   con't
e|-------13--------13--------------13-------13---------------13---------|
B|----15--------15-------15-----15-------15--------15-----15------------|
G|----------------------------------------------------------------------|
D|-12--------12-------12-----14-------14--------14----------------------|
A|-----------------------------------------------------12---------------|
E|----------------------------------------------------------------------|
   con't
e|-------13-------------13-------13----------|--------------------------|
B|----15-------15----15-------15-------15----|--------------------------|
G|-------------------------------------------|-(x2)---------------------|
D|-------------------------------------------|--------------------------|
A|-12-------12----12-------12-------12-------|--------------------------|
E|-------------------------------------------|--------------------------|
   then
e|-------13-------13----------------13--------13-------------13---------|
B|----15-------15-------15-------15--------15-------15----15------------|
G|----------------------------------------------------------------------|
D|----------------------------------------------------------------------|
A|-13-------13-------13-------12--------12-------12-----0---------------|
E|----------------------------------------------------------------------|
   con't                                    |last time end on first
e|------13--------------13-------13-----------------|---13----13--------|
B|---15-------15-----15-------15------15------------|-15----15----15----|
G|----------------------------------------------(x2)|-------------------|
D|--------------------------------------------------|-------------------|
A|-0-------0------0---------0-------0---------------|0----0------0------|
E|--------------------------------------------------|-------------------|

   Guitar 2 (sounds best distorted, but can be done clean)
   (00:00-00:32)
e|-17~------------------------------------------------------------------|
B|----------------------------------------------------------------------|
G|----------------------------------------------------------------------|
D|----------------------------------------------------------------------|
A|----------------------------------------------------------------------|
E|----------------------------------------------------------------------|
[ Tab from: http://www.guitartabs.cc/tabs/b/bled/porcelain_hearts_and_hammers_for_teeth_tab_ver_2.html ]
   (00:32-1:18)
e|-17~------------------------17~---------------------------------------|
B|----------17~------------------------17~------18~---------------------|
G|-------------------17~------------------------------------------------|
D|----------------------------------------------------------------------|
A|----------------------------------------------------------------------|
E|----------------------------------------------------------------------|

   Guitar 1 (clean)(1:18-1:26):
e|-------13----17-13----13------|fourth time------13----17~-------------|
B|----15------------------------|end with:-----15-----------------------|
G|-14-------14-------14-----(x4)|-----------14-------14-----------------|
D|------------------------------|---------------------------------------|
A|------------------------------|---------------------------------------|
E|------------------------------|---------------------------------------|

   Both Guitars (Distorted)(1:26-2:21)
e|----------------------------------------------------------------------|
B|----------------------------------------------------------------------|
G|----------------------------------------------------------------------|
D|-12-12-12-12-12-12-12-12/14-14-14-14-14-14-14-14/15-15-15-15-15-15-15-|
A|----------------------------------------------------------------------|
E|----------------------------------------------------------------------|

e|----------------------------------------------------------------------|
B|----------------------------------------------------------------------|
G|----------------------------------------------------------------------|
D|-15-15-15-15-7-7-7-7-7-7-7-7-7-7--------12-12-12-12-12-12-12-12-12/11-|
A|----------------------------------------------------------------------|
E|----------------------------------------------------------------------|

e|-----------------------------------------------------------------------|
B|-----------------------------------------------------------------------|
G|-----------------------------------------------------------------------|
D|-11-11-11-11-11-11-11-11-11/8-8-8-8-8-8-8-8-8-8/7-7-7-7-7-7-7-7-7------| (x3)
A|-----------------------------------------------------------------------|
E|-----------------------------------------------------------------------|

   Bridge Thing
e|----------------------------------------------------------------------|
B|----------------------------------------------------------------------|
G|----------------------------------------------------------------------|
D|-7-7-7-7-7---1010101010-----------------------------------------------|
A|-7-7-7-7-7---1010101010-----------------------------------------------|
E|-5-5-5-5-5---8-8-8-8-8------------------------------------------------|

   Verse(Both Guitars)(Heavy Distortion)(2:25-2:43)     End On
e|----------------------------------------------------------|------------|
B|----------------------------------------------------------|------------|
G|---8---8------------8-8----------------8---8--------------|------------|
D|-7-x-7-x----------7-x-x--------------7-x-7-x-7-7-7-4-4-4--|-555-121212-|
A|-7-6-7-65p0-1h2--7-6-6-5p0-6-5p0-6--7-6-7-6-7-7-7-4-4-4--|-555-121212-|
E|-5---5------------5------------------5---5---5-5-5-2-2-2--|-777-101010-|

   Next Part (Both Guitars)
e|----------------------------------------------------------------------|
B|-8p0-6p0-48p0-6p0-4-----8p0-6p0-4---------8p0-6p0-4------------------|
G|----------------------------------------------------------------------|
D|---------------------7-7-----------7-7-7-7-----------7-7-7-7-10101010-|
A|---------------------7-7-----------7-7-7-7-----------7-7-7-7-10101010-|
E|---------------------5-5-----------5-5-5-5-----------5-5-5-5-8-8-8-8--|
                       *             *   *
e|----------------------------------------------------------------------|
B|----------------------------------------------------------------------|
G|---8---8-----------8---8-8-8------------------------------------------|
D|-7-x-7-x---------7-x-7-x-x-x-7-7-7-7-1010101012~---12-----------------|
A|-7-6-7-6-5p0-1h2-7-6-7-6-6-6-7-7-7-7-1010101012~---12-----------------|
E|-5---5-----------5---5-------5-5-5-5-8-8-8-810~---10-----------------|

This is the first tab ive ever written and i dunno the rest of the song so if i get it 
tab it and send it in. Corrections: lost_cause19@hotmail.com
Thanks
Comments