Bled - Porcelain Hearts And Hammers For Teeth Chords & Tabs

 

Porcelain Hearts And Hammers For Teeth Chords & Tabs

Bled Chords & Tabs

Version: 1 Type: Tab 0 ratings
1 star 2 stars 3 stars 4 stars 5 stars
comments

Porcelain Hearts And Hammers For Teeth Tab

-------------------------------------------------------------------------------
			     Porcelain Hearts and Hammers For Teeth - The Bled
-------------------------------------------------------------------------------
Tabbed by: Jeff B
Email:jeff_barton88@hotmail.com
It's a pretty good song, I think this sounds basically like the intro, it should be like 99% correct.

Tuning: Standard

Guitar 1     
Repeated 37 times, i think (0:00-1:16)......then 1 time 
e|--10--13-----10--13--10-----|---10--13---|
B|----------------------------|------------|
G|----------------------------|------------|
D|----------------------------|------------|
A|----------------------------|------------|
E|----------------------------|------------|
[ Tab from: http://www.guitartabs.cc/tabs/b/bled/porcelain_hearts_and_hammers_for_teeth_tab.html ]
(1:19-1:27) Play 3 times ................then this on the last time 
e|--10--13--17--13--10--|--10--13--17~--------|
B|----------------------|---------------------|
G|----------------------|---------------------|
D|----------------------|---------------------|
A|----------------------|---------------------|
E|----------------------|---------------------|


Guitar 2 (All Harmonics)(0:00-0:31)
e|--5~---------------5~-----------------5~------------------5~--------------|
B|--------------------------------------------------------------------------|
G|--------------------------------------------------------------------------|
D|--------------------------------------------------------------------------|
A|--------------------------------------------------------------------------|
E|--------------------------------------------------------------------------|

(0:32-1:18) *Harmonics* Play 3 times
e|--5~--1-----------5~--1--/2-----------|
B|----------2---------------------------|
G|--------------------------------------|
D|--------------------------------------|
A|--------------------------------------|
E|--------------------------------------|
Comments