Bled - I Never Met Another Gemini Chords & Tabs

 

I Never Met Another Gemini Chords & Tabs

Bled Chords & Tabs

Version: 1 Type: Tab 0 ratings
1 star 2 stars 3 stars 4 stars 5 stars
comments

I Never Met Another Gemini Tab

THE BLED
I NEVER MET ANOTHER GEMINI (INTRO)
FROM THE ALBUM: PASS THE FLASK
TABBED BY:

TUNING: DGCFAD


|-------------------------------|
|----19-20---19-20---19---------|
|-17-------17------17-----------|
|-------------------------------|
|-------------------------------|
|-------------------------------|
[ Tab from: http://www.guitartabs.cc/tabs/b/bled/i_never_met_another_gemini_tab.html ]
|-------------------------------|
|----19-20-------20----19-------|
|-16-------16-16---16-----------|
|-------------------------------|
|-------------------------------|
|-------------------------------|

|-------------------------------|
|----19-20---19-20---19---------|
|-17-------17------17-----------|
|-------------------------------|
|-------------------------------|
|-------------------------------|

|-------------------------------|
|----19-20----20----------------|
|-19-------19-------------------|
|-------------------------------|
|-------------------------------|
|-------------------------------|
Comments