Bleach - Tea For Two Chords & Tabs

 

Tea For Two Chords & Tabs

Bleach Chords & Tabs

Version: 1 Type: Bass Tab 0 ratings
1 star 2 stars 3 stars 4 stars 5 stars
comments

Tea For Two Bass Tab

Tea for Two
By Bleach
Tabbed by Paul Cahill 
at patcpro@aol.com

Intro:

E--5--1-----3
A--------3---


Verse:
E--5--1-----3--5--1---
A--------3-----------3


Chorus:
[ Tab from: http://www.guitartabs.cc/tabs/b/bleach/tea_for_two_btab.html ]
E-----5--1--3--5--3--1
A--3------------------

Bridge:

E--3--1-----5----5-----5------5
A--------3----3-----3-----3---

This should be right except for the bridge may be a little off. Listen to the
CD for that part and the rythem.

Comments