Blaze - Blood And Belief Chords & Tabs

 

Blood And Belief Chords & Tabs

Blaze Chords & Tabs

Version: 1 Type: Tab 0 ratings
1 star 2 stars 3 stars 4 stars 5 stars
comments

Blood And Belief Tab

   
#----------------------------------PLEASE NOTE---------------------------------#
#This file is the author's own work and represents their interpretation of the #
#song. You may only use this file for private study, scholarship, or research. #
#------------------------------------------------------------------------------##

                                 BLOOD & BELIEF
                            As recorded by B L A Z E
                      (From the 2004 Album BLOOD & BELIEF)

Words by Blaze Bayley

Music by John Slater, Steve Wray
Arranged by John Bonham
Transcribed by John Bonham

Gtr I (E A D G B E) - 'Guitar 1'
Gtr II (E A D G B E) - 'Guitar 2'
Gtr III (E A D G B E) - 'Clean'
Gtr IV (E A D G B E) - 'Overdub'
Gtr V (E A D G B E) - 'Clean 2'

 Intro
  Q=90
 4/4
  Gtr I
     PM------------|     PM|      PM------------|     PM|
  Q  S S S S S S S S S S S S   Q  S S S S S S S S S S S S
|----------------------------|----------------------------|
|----------------------------|----------------------------|
|-5------------------5h7-----|-4------------------5p4-----|
|-7------------------7-7-----|-5------------------5-5-----|
|-0--0-0-0-0-0-0-0-0-0-0-0-0-|-0--0-0-0-0-0-0-0-0-0-0-0-0-|
|----------------------------|----------------------------|
|
| Gtr II
| W                            W
|----------------------------|----------------------------|
|----------------------------|----------------------------|
|----------------------------|----------------------------|
|----------------------------|----------------------------|
|----------------------------|----------------------------|
|----------------------------|----------------------------|


     PM------------|   PM|      PM------------------|      PM|
  Q  S S S S S S S S E S S   Q  S S S S S  S     S  S E    S S
|--------------------------|-----------------------------------|
|--------------------------|-----------------------------------|
|-4------------------4-----|-4------------------------4--------|
|-4------------------4-----|-5------------------------5--------|
|-0--0-0-0-0-0-0-0-0-0-0-0-|-0--0-0-0-0-0--0-----0--0-0----0-0-|
|--------------------------|-----------------------------------|
|
| W                          H          S +S    +E    S E.
|--------------------------|-----------------------------------|
|--------------------------|-----------------------------------|
|--------------------------|------------4-(4)b5-(4)---4--------|
|--------------------------|----------------------------5------|
|--------------------------|-----------------------------------|
|--------------------------|-----------------------------------|


               PM------------------|         PM|                 PM------------------|         PM|
   Q           S  S  S  S  S  S  S  S  S  S  S  S    Q           S  S  S  S  S  S  S  S  S  S  S  S
|-------------------------------------------------|-------------------------------------------------|
|-------------------------------------------------|-------------------------------------------------|
|--5-----------------------------------5h=7-------|--4-----------------------------------5p=4-------|
|--7-----------------------------------7--7-------|--5-----------------------------------5--5-------|
|--0-----------0--0--0--0--0--0--0--0--0--0--0--0-|--0-----------0--0--0--0--0--0--0--0--0--0--0--0-|
|-------------------------------------------------|-------------------------------------------------|
|
|  S  S  S  S  S  S  S  S  S  S  S  S  S  S  S  S    S  S  S  S  S  S  S  S  S  S  S  S  S  S  S  S
|-------------------------------------------------|-------------------------------------------------|
|-10-10-10-10-10-10-10-10-10-10-10-10-10-10-10-10-|-10-10-10-10-10-10-10-10-10-10-10-10-10-10-10-10-|
|-------------------------------------------------|-------------------------------------------------|
|-------------------------------------------------|-------------------------------------------------|
|-------------------------------------------------|-------------------------------------------------|
|-------------------------------------------------|-------------------------------------------------|


               PM------------------|         PM|                 PM------------------|
   Q           S  S  S  S  S  S  S  S  E     S  S    Q           S  S  S  S  S  S  S  S  Q
|-------------------------------------------------|-------------------------------------------|
|-------------------------------------------------|-------------------------------------------|
|--4-----------------------------------4----------|--4-----------------------------------4\---|
|--4-----------------------------------4----------|--5-----------------------------------5\---|
|--0-----------0--0--0--0--0--0--0--0--0-----0--0-|--0-----------0--0--0--0--0--0--0--0--0----|
|-------------------------------------------------|-------------------------------------------|
|
|  S  S  S  S  S  S  S  S  S  S  S  S  S  S  S  S    S  S  S  S  S  S  S  S  S  S  S  S  E  E
|-------------------------------------------------|-------------------------------------------|
|-12-12-12-12-12-12-12-12-12-12-12-12-12-12-12-12-|-13-13-13-13-13-13-13-13-13-13-13-13-13\---|
|-------------------------------------------------|-------------------------------------------|
|-------------------------------------------------|-------------------------------------------|
|-------------------------------------------------|-------------------------------------------|
|-------------------------------------------------|-------------------------------------------|


 Breakdown
  Gtr III
  E E H    S S E   E E H    +E  E   E E E Q  E E E   E E E Q  E E E
|----------------|----------------|-------0--------|-------0---------|
|---1-0------0h1-|-----0----(0)---|-----0----0-----|-----0----0------|
|-2--------2-----|-0-4----------0-|---2--------2---|---2--------2----|
|----------------|----------------|-4------------4-|-3------------3--|
|----------------|----------------|----------------|-----------------|
|----------------|----------------|----------------|-----------------|


  E E H    S S E   E E Q.   E S S E   E E E Q.   E E   E E E Q  E E E
|----------------|------------------|-------0--------|-------0--------|
|---1-0------0h1-|-----0----------0-|-----0----------|-----0----0-----|
|-2--------2-----|-0-4------0-0h4---|---2----------2-|---2--------2---|
|----------------|------------------|-4----------4---|-3------------3-|
|----------------|------------------|----------------|----------------|
|----------------|------------------|----------------|----------------|


 Main Riff
  Q=184
  Gtr I
    PM--|   PM--|   PM----|   PM--|   PM|
  E S S E E S S E E S S   E E S S E E S S E E
|-----------------------|---------------------|
|-----------------------|---------------------|
|-----------------------|---------------------|
|-----------------3-----|-----------------4s3-|
|-2-------2-------1-----|---2-------2-----2s1-|
|-0-0-0-0-0-0-0-0---0-0-|-0-0-0-0-0-0-0-0-----|


    PM--|   PM--|   PM----|   PM--|
  E S S E E S S E E S S   E E S S E E E E E
|-----------------------|-------------------|
|-----------------------|-------------------|
|-----------------------|-------------------|
|-----------------3-----|-----------5s4-5s7-|
|-2-------2-------1-----|---2-------3s2-3s5-|
|-0-0-0-0-0-0-0-0---0-0-|-0-0-0-0-0---------|


    PM--|   PM--|   PM----|     PM--|   PM|
  E S S E E S S E E S S    E  E S S E E S S E E
|-----------------------|-----------------------|
|-----------------------|-----------------------|
|-----------------------|-----------------------|
|-----------------3-----|-------------------4s3-|
|-2-------2-------1-----|-----2-------2-----2s1-|
|-0-0-0-0-0-0-0-0---0-0-|--0--0-0-0-0-0-0-0-----|
|
| Gtr II
| W                       +W
|-----------------------|-----------------------|
|-----------------------|-----------------------|
|-----------------------|-----------------------|
|-----------------------|-----------------------|
|-7---------------------|-(7)-------------------|
|-0---------------------|-(0)-------------------|


      PM--|   PM--|   PM----|     PM--|
   E  S S E E S S E E S S    E  E S S E E E E E
|-------------------------|---------------------|
|-------------------------|---------------------|
|-------------------------|---------------------|
|-------------------3-----|-------------5s4-5s4-|
|--2--------2-------1-----|-----2-------3s2-3s2-|
|--0--0-0-0-0-0-0-0---0-0-|--0--0-0-0-0---------|
|
| +W                        +W
|-------------------------|---------------------|
|-------------------------|---------------------|
|-------------------------|---------------------|
|-------------------------|---------------------|
|-(7)---------------------|-(7)-----------------|
|-(0)---------------------|-(0)-----------------|


     PM--|   PM--|   PM----|      PM--|   PM|
   E S S E E S S E E S S     E  E S S E E S S E E
|------------------------|------------------------|
|------------------------|------------------------|
|------------------------|------------------------|
|------------------3-----|--------------------4s3-|
|--2-------2-------1-----|------2-------2-----2s1-|
|--0-0-0-0-0-0-0-0---0-0-|---0--0-0-0-0-0-0-0-----|
|
|  W                        +W
|------------------------|------------------------|
|------------------------|------------------------|
|------------------------|------------------------|
|-12---------------------|-(12)-------------------|
|--7---------------------|--(7)-------------------|
|--0---------------------|--(0)-------------------|


       PM--|   PM--|   PM----|      PM--|
    E  S S E E S S E E S S     E  E S S E E E E E
|--------------------------|----------------------|
|--------------------------|----------------------|
|--------------------------|----------------------|
|--------------------3-----|--------------5s4-5s7-|
|---2--------2-------1-----|------2-------3s2-3s5-|
|---0--0-0-0-0-0-0-0---0-0-|---0--0-0-0-0---------|
|
|  +W                         +W
|--------------------------|----------------------|
|--------------------------|----------------------|
|--------------------------|----------------------|
|-(12)---------------------|-(12)-----------------|
|--(7)---------------------|--(7)-----------------|
|--(0)---------------------|--(0)-----------------|


    PM--|   PM--|   PM----|   PM--|   PM|
  E S S E E S S E E S S   E E S S E E S S E E
|-----------------------|---------------------|
|-----------------------|---------------------|
|-----------------------|---------------------|
|-----------------3-----|-----------------4s3-|
|-2-------2-------1-----|---2-------2-----2s1-|
|-0-0-0-0-0-0-0-0---0-0-|-0-0-0-0-0-0-0-0-----|
|
|   PM----|         PM------|
| E S S E E Q     E S S   E E Q     q     q
|-----------------------|---------------------|
|-----------------------|---------------------|
|-----------------------|---------------------|
|-----------------------|---------------------|
|-----------------------|---------------------|
|-0-0-0-0-0-------0-0-0-|-0-0-------0-----0---|


    PM--|   PM--|   PM----|   PM--|
  E S S E E S S E E S S   E E S S E E E E E
|-----------------------|-------------------|
|-----------------------|-------------------|
|-----------------------|-------------------|
|-----------------3-----|-----------5s4-5s4-|
|-2-------2-------1-----|---2-------3s2-3s2-|
|-0-0-0-0-0-0-0-0---0-0-|-0-0-0-0-0---------|
|
|   PM----|         PM------|
| E S S E E Q     E S S   E E Q     q   q
|-----------------------|-------------------|
|-----------------------|-------------------|
|-----------------------|-------------------|
|-----------------------|-------------------|
|-----------------------|-------------------|
|-0-0-0-0-0-------0-0-0-|-0-0-------0---0---|


  Gtrs I, II
    PM--|   PM--|   PM----|   PM--|   PM|
  E S S E E S S E E S S   E E S S E E S S E E
|-----------------------|---------------------|
|-----------------------|---------------------|
|-----------------------|---------------------|
|-----------------3-----|-----------------4s3-|
|-2-------2-------1-----|---2-------2-----2s1-|
|-0-0-0-0-0-0-0-0---0-0-|-0-0-0-0-0-0-0-0-----|


    PM--|   PM--|   PM----|   PM--|
  E S S E E S S E E S S   E E S S E E E E E
|-----------------------|-------------------|
|-----------------------|-------------------|
|-----------------------|-------------------|
|-----------------3-----|-----------5s4-5s7-|
|-2-------2-------1-----|---2-------3s2-3s5-|
|-0-0-0-0-0-0-0-0---0-0-|-0-0-0-0-0---------|


    PM--|   PM--|   PM----|   PM--|   PM|
  E S S E E S S E E S S   E E S S E E S S E E
|-----------------------|---------------------|
|-----------------------|---------------------|
|-----------------------|---------------------|
|-----------------3-----|-----------------4s3-|
|-2-------2-------1-----|---2-------2-----2s1-|
|-0-0-0-0-0-0-0-0---0-0-|-0-0-0-0-0-0-0-0-----|


    PM--|   PM--|   PM----|   PM--|
  E S S E E S S E E S S   E E S S E E E E E
|-----------------------|-------------------|
|-----------------------|-------------------|
|-----------------------|-------------------|
|-----------------3-----|-----------5s4-5s4-|
|-2-------2-------1-----|---2-------3s2-3s2-|
|-0-0-0-0-0-0-0-0---0-0-|-0-0-0-0-0---------|


   Verse
      PM--|   PM--|   PM----|   PM--|   PM|
    E S S E E S S E E S S   E E S S E E S S E E
||------------------------|---------------------|
||o-----------------------|---------------------|
||------------------------|---------------------|
||------------------3-----|-----------------4s3-|
||o-2-------2-------1-----|---2-------2-----2s1-|
||--0-0-0-0-0-0-0-0---0-0-|-0-0-0-0-0-0-0-0-----|


    PM--|   PM--|   PM----|   PM--|
  E S S E E S S E E S S   E E S S E E E E E
|-----------------------|---------------------|
|-----------------------|---------------------|
|-----------------------|---------------------|
|-----------------3-----|-----------5s4-5s7---|
|-2-------2-------1-----|---2-------3s2-3s5---|
|-0-0-0-0-0-0-0-0---0-0-|-0-0-0-0-0-----------|


    PM--|   PM--|   PM----|   PM--|   PM|
  E S S E E S S E E S S   E E S S E E S S E E
|-----------------------|---------------------|
|-----------------------|---------------------|
|-----------------------|---------------------|
|-----------------3-----|-----------------4s3-|
|-2-------2-------1-----|---2-------2-----2s1-|
|-0-0-0-0-0-0-0-0---0-0-|-0-0-0-0-0-0-0-0-----|


    PM--|   PM--|   PM----|   PM--|
  E S S E E S S E E S S   E E S S E E E E E
|-----------------------|--------------------||
|-----------------------|-------------------o||
|-----------------------|--------------------||
|-----------------3-----|-----------5s4-5s4--||
|-2-------2-------1-----|---2-------3s2-3s2-o||
|-0-0-0-0-0-0-0-0---0-0-|-0-0-0-0-0----------||


 Pre-Chorus
  W          +W           W          +W
|----------|------------|----------|--------|
|----------|------------|----------|--------|
|----------|------------|----------|--------|
|-6--------|-(6)--------|-8--------|-(8)----|
|-6--------|-(6)--------|-9--------|-(9)----|
|-4--------|-(4)--------|-6--------|-(6)----|


    PM--|   PM--|   PM----|   PM--|   PM|
  E S S E E S S E E S S   E E S S E E S S E E
|-----------------------|---------------------|
|-----------------------|---------------------|
|-----------------------|---------------------|
|-----------------3-----|-----------------4s3-|
|-2-------2-------1-----|---2-------2-----2s1-|
|-0-0-0-0-0-0-0-0---0-0-|-0-0-0-0-0-0-0-0-----|


    PM--|   PM--|   PM----|   PM--|
  E S S E E S S E E S S   E E S S E E E E E
|-----------------------|-------------------|
|-----------------------|-------------------|
|-----------------------|-------------------|
|-----------------3-----|-----------5s4-5s4-|
|-2-------2-------1-----|---2-------3s2-3s2-|
|-0-0-0-0-0-0-0-0---0-0-|-0-0-0-0-0---------|


   Verse
      PM--|   PM--|   PM----|   PM--|   PM|
    E S S E E S S E E S S   E E S S E E S S E E
||------------------------|---------------------|
||o-----------------------|---------------------|
||------------------------|---------------------|
||------------------3-----|-----------------4s3-|
||o-2-------2-------1-----|---2-------2-----2s1-|
||--0-0-0-0-0-0-0-0---0-0-|-0-0-0-0-0-0-0-0-----|


    PM--|   PM--|   PM----|   PM--|
  E S S E E S S E E S S   E E S S E E E E E
|-----------------------|---------------------|
|-----------------------|---------------------|
|-----------------------|---------------------|
|-----------------3-----|-----------5s4-5s7---|
|-2-------2-------1-----|---2-------3s2-3s5---|
|-0-0-0-0-0-0-0-0---0-0-|-0-0-0-0-0-----------|


    PM--|   PM--|   PM----|   PM--|   PM|
  E S S E E S S E E S S   E E S S E E S S E E
|-----------------------|---------------------|
|-----------------------|---------------------|
|-----------------------|---------------------|
|-----------------3-----|-----------------4s3-|
|-2-------2-------1-----|---2-------2-----2s1-|
|-0-0-0-0-0-0-0-0---0-0-|-0-0-0-0-0-0-0-0-----|


    PM--|   PM--|   PM----|   PM--|
  E S S E E S S E E S S   E E S S E E E E E
|-----------------------|--------------------||
|-----------------------|-------------------o||
|-----------------------|--------------------||
|-----------------3-----|-----------5s4-5s4--||
|-2-------2-------1-----|---2-------3s2-3s2-o||
|-0-0-0-0-0-0-0-0---0-0-|-0-0-0-0-0----------||


 Pre-Chorus
  W          +W           W          +W
|----------|------------|----------|--------|
|----------|------------|----------|--------|
|----------|------------|----------|--------|
|-6--------|-(6)--------|-8--------|-(8)----|
|-6--------|-(6)--------|-9--------|-(9)----|
|-4--------|-(4)--------|-6--------|-(6)----|


    PM--|   PM--|   PM----|   PM--|
  E S S E E S S E E S S   E E S S E q  q
|-----------------------|-----------------|
|-----------------------|-----------------|
|-----------------------|-----------------|
|-----------------------|-----------------|
|-2-------2-------2-----|---2-------2--2--|
|-0-0-0-0-0-0-0-0-0-0-0-|-0-0-0-0-0-0--0--|


    PM--|   PM--|   PM----|   PM--|
  E S S E E S S E E S S   E E S S E q  q
|-----------------------|-------------------|
|-----------------------|-------------------|
|-----------------------|-------------------|
|-----------------------|-------------------|
|-2-------2-------2-----|---2-------2--2----|
|-0-0-0-0-0-0-0-0-0-0-0-|-0-0-0-0-0-0--0----|


  W          +W           W          +W
|----------|------------|----------|--------|
|----------|------------|----------|--------|
|----------|------------|----------|--------|
|-6--------|-(6)--------|-8--------|-(8)----|
|-6--------|-(6)--------|-9--------|-(9)----|
|-4--------|-(4)--------|-6--------|-(6)----|


    PM--|   PM--|   PM----|   PM--|   PM|
  E S S E E S S E E S S   E E S S E E S S E E
|-----------------------|---------------------|
|-----------------------|---------------------|
|-----------------------|---------------------|
|-----------------3-----|-----------------4s3-|
|-2-------2-------1-----|---2-------2-----2s1-|
|-0-0-0-0-0-0-0-0---0-0-|-0-0-0-0-0-0-0-0-----|


    PM--|   PM--|
  E S S E E S S E E E   +E  Q  Q  Q.
|---------------------|----------------|
|---------------------|----------------|
|-------------------5-|-(5)-4--2--4----|
|-------------------5-|-(5)-5--3--5----|
|-2-------2-------2---|----------------|
|-0-0-0-0-0-0-0-0-0---|----------------|


   Chorus
    W          Q.   q  q  E   +W           Q.   Q  Q.
||-----------|--------------|------------|---------------|
||o----------|--------------|------------|---------------|
||-----------|------5--5--4-|-(4)--------|-4----5--4-----|
||--7--------|-7----7--7--5-|-(5)--------|-5----5--5-----|
||o-7--------|-7----0--0--0-|-(0)--------|-0----0--0-----|
||--5--------|-5------------|------------|---------------|


  W          +E  E E E E E E E   +W           E Q  Q  Q.
|----------|-------------------|------------|---------------||
|----------|-------------------|------------|--------------o||
|----------|-------------------|------------|-5p4--2--4-----||
|-5--------|-(5)-------------2-|-(2)--------|-5-5--3--5-----||
|-5--------|-(5)-------3-----2-|-(2)--------|--------------o||
|-3--------|-(3)-0-3-5---5-3-0-|-(0)--------|---------------||


   Interlude
   2/2
    Gtr I
        ~~~~~~~~~~~~~~       ~~~~~~~~~~~~~~~~~~~~~~
    E E H.        +H     E E Q    +W           +W
||--------------|---------------|------------|--------|
||o-------------|---------------|------------|--------|
||--------------|---------------|------------|--------|
||------4-------|-(4)--------5--|-(5)--------|-(5)----|
||o-2h4---------|--------2h4----|------------|--------|
||--------------|---------------|------------|--------|


      ~~~~~~~~~~~~~~        ~~~~~~~~~~~~~~~~~~~~~~
  E E H.        +H     E E  Q    +W           +W
|-------------|----------------|------------|---------||
|-------------|----------------|------------|--------o||
|-------------|----------------|------------|---------||
|-----4-------|-(4)------------|------------|---------||
|-2h4---------|--------2h4-/7--|-(7)--------|-(7)----o||
|-------------|----------------|------------|---------||


    Gtr I
                            ~~               ~~~~~~~~~    ~
    E E Q  Q  Q    +Q   Q   H      E E Q  Q  Q    +Q   Q  H     4x
||---------------|---------------|--------------|---------------||
||o--------------|---------------|--------------|--------------o||
||---------------|---------------|--------------|---------------||
||------4-----5--|-(5)-----/7----|-----4-----5--|-(5)--4--------||
||o-2h4----2-----|------2--------|-2h4----2-----|---------3----o||
||---------------|---------------|--------------|---------------||
|
|   Gtr II
|                           ~~                            ~
|   E E Q  Q  Q    +Q   Q   H      E E Q  Q  Q    +Q   Q  H     4x
||---------------|---------------|--------------|---------------||
||o--------------|---------------|--------------|--------------o||
||------4-----5--|-(5)-----/7----|-----4-----5--|-(5)--4--------||
||--2h4----2-----|------2--------|-2h4----2-----|---------3-----||
||o--------------|---------------|--------------|--------------o||
||---------------|---------------|--------------|---------------||


 Guitar Solo 1
 4/4
             ~~~~~~~~                  PM------|    ~~~
  H.       E E   +H.      E E   E Q    E E E E E    W
|--------------|--------------|------------------|--------|
|-4--------4---|----------5p4-|------------------|--------|
|-6b8--------6-|-(6)----------|-6-6b8--6-4-------|--------|
|--------------|--------------|------------6-4---|--------|
|--------------|--------------|----------------6-|-[4]----|
|--------------|--------------|------------------|--------|
|
| W              +W             W                  +W
|--------------|--------------|------------------|--------|
|--------------|--------------|------------------|--------|
|--------------|--------------|------------------|--------|
|-6------------|-(6)----------|-8----------------|-(8)----|
|-6------------|-(6)----------|-9----------------|-(9)----|
|-4------------|-(4)----------|-6----------------|-(6)----|

[ Tab from: http://www.guitartabs.cc/tabs/b/blaze/blood_and_belief_tab.html ]
    ~~~~       ~~~~       ~~~~         ~~~~     TP
    Q      E   Q      E   Q        E   Q      E H
|--------------------------------|---------------------|
|--------------------------------|---------------------|
|-[13]-------[13]-------[13]-----|---[13]--------------|
|--------------------------------|--------------x\-----|
|--------------------------------|--------------x\-----|
|--------------------------------|---------------------|
|
|      PM--|      PM--|      PM----|      PM--|
|   E  S S E   E  S S E   E  S S   E   E  S S E q   q
|--------------------------------|---------------------|
|--------------------------------|---------------------|
|--------------------------------|---------------------|
|--------------------------------|---------------------|
|---2----------2----------2------|-----2--------2---2--|
|---0--0-0-0---0--0-0-0---0--0-0-|-0---0--0-0-0-0---0--|


   TP           TP    PM|                        ~~~
   H           +E     E E E     E E E    Q      +Q.
|-----------------------------|-------------------------|
|-------------------------5---|-4-----------------------|
|-----------------------6-----|---6-4---[6]b8---(6)-----|
|---------------------6-------|-------------------------|
|-(x)\---------(x)\-----------|-------------------------|
|--x\----------(x)\-----------|-------------------------|
|
|      PM--|    PM----|   PM----|   PM--|
|  E   S S E E  S   S E E S S   E E S S  E    q     q
|-----------------------------|-------------------------|
|-----------------------------|-------------------------|
|-----------------------------|-------------------------|
|-----------------------------|-------------------------|
|--2---------2----------2-----|---2-----------2-----2---|
|--0---0-0-0-0--0---0-0-0-0-0-|-0-0-0-0--0----0-----0---|


                             ~  PM--|                          ~~~
   Q.     +H     +E     Q.   Q  E E E   E   +E  E E E Q.      +H.      Q
|--------------------|----------------|---------------------|-------------|
|-[7]b9---(7)----(7)-|--4----2--0-2-4-|-4b5r(4)p2p0---------|-------------|
|--------------------|----------------|-------------6-6b8---|-(6)---------|
|--------------------|----------------|---------------------|----------6--|
|--------------------|----------------|---------------------|-------------|
|--------------------|----------------|---------------------|-------------|
|
|  W                   +W               W                     +W
|--------------------|----------------|---------------------|-------------|
|--------------------|----------------|---------------------|-------------|
|--------------------|----------------|---------------------|-------------|
|--6-----------------|-(6)------------|-8-------------------|-(8)---------|
|--6-----------------|-(6)------------|-9-------------------|-(9)---------|
|--4-----------------|-(4)------------|-6-------------------|-(6)---------|


  PM--------------------|                               ~
  S S S S S S S S S S S S S S E     S S  E  E       +E  H
|---------------------------------|---------------------------|
|---------------------------------|--------12b14---(12)-9-----|
|-------------------------9p8-----|-8h9h11--------------------|
|-6-6-6-6-8-8-8-8-9-9-9-9-----9---|---------------------------|
|---------------------------------|---------------------------|
|---------------------------------|---------------------------|
|
|     PM--|       PM--|       PM----|       PM-----|
| E   S S E   E   S S E   E   S S   E    E  S    S   E  q  q
|---------------------------------|---------------------------|
|---------------------------------|---------------------------|
|---------------------------------|---------------------------|
|---------------------------------|---------------------------|
|-2-----------2-----------2-------|------2--------------2--2--|
|-0---0-0-0---0---0-0-0---0---0-0-|-0----0--0----0---0--0--0--|


        TP                TP
  Q     H.               +Q      H           +Q
|----------------------|---------------------------|
|----------------------|--------12b15-------(12)r--|
|----------------------|---------------------------|
|-6-----x\-------------|-(x)\----------------------|
|-------x\-------------|-(x)\----------------------|
|-------x\-------------|-(x)\----------------------|
|
|   PM--|    PM--|
| E S S E  E S S E E E   +E   Q       Q  Q.
|----------------------|---------------------------|
|----------------------|---------------------------|
|--------------------5-|-(5)--4-------2--4---------|
|--------------------5-|-(5)--5-------3--5---------|
|-2--------2-------2---|---------------------------|
|-0-0-0-0--0-0-0-0-0---|---------------------------|


 Guitar Solo 2
  Gtr I
  ~~~                      ~~~~~~~~~~                ~~~~~~~~~~~
  H.       Q    Q.   Q  Q  E     +H.      Q    Q.    H      +E
|-------------|----------------|-------------|------------------|
|-------------|----------------|-------------|------------------|
|-9--------7--|-5----2--5--9---|-(9)------7--|-5-----2------(2)-|
|-------------|----------------|-------------|------------------|
|-------------|----------------|-------------|------------------|
|-------------|----------------|-------------|------------------|
|
| Gtr IV
| ~~~                             ~~~                ~~~~~~~~~~~
| H.       Q    Q.   Q  Q  E     +H.      Q    Q.    H      +E
|-------------|----------------|-------------|------------------|
|-------------|----------------|-------------|------------------|
|-4b5------4--|-2----0--4--4b5-|-(4)------4--|-2----------------|
|-------------|----------------|-------------|------/5------(5)-|
|-------------|----------------|-------------|------------------|
|-------------|----------------|-------------|------------------|
|
| Gtr II
| W             Q.   q  q  E     +W            Q.    Q  Q.
|-------------|----------------|-------------|------------------|
|-------------|----------------|-------------|------------------|
|-------------|------5--5--4---|-(4)---------|-4-----5--4-------|
|-7-----------|-7----7--7--5---|-(5)---------|-5-----5--5-------|
|-7-----------|-7----0--0--0---|-(0)---------|-0-----0--0-------|
|-5-----------|-5--------------|-------------|------------------|


  Gtr I
  PM--------|
              |-3-|    |--------------3---------------|
  E E E E E E E E E    E  E   E E E   E E E   E E E   E
|-------------------|-----------------------------------|
|-------------------|-----------------------------------|
|-------------------|---------------------------5h7h==9-|
|-------------------|-------------------5h7h==9---------|
|-------------------|-----------5h7h==8-----------------|
|-7-8-5-7-3-5-3h5h7-|--5h=7h==8-------------------------|
|
| Gtr II
| W                   +E    E   E   E   E   E   E   E
|-------------------|-----------------------------------|
|-------------------|-----------------------------------|
|-------------------|-----------------------------------|
|-5-----------------|-(5)---------------------------2---|
|-5-----------------|-(5)---------------3-----------2---|
|-3-----------------|-(3)---0---3---5-------5---3---0---|


                                                 ~~~
   |-----------3------------|   |--3--| |--3--|
   E   E E  E E E E E E E E E   E E   E E E   E  H
|-----------------------------|---------------------------|
|-----------------------------|---------------------------|
|-12p=10p9-10p9p7-9p7p5-------|---------------------------|
|-----------------------9p7p5-|---------9p7p==5-[7]-------|
|-----------------------------|-8p7p==5-------------------|
|-----------------------------|---------------------------|
|
| +W                            E   Q       Q       Q.
|-----------------------------|---------------------------|
|-----------------------------|---------------------------|
|-----------------------------|-5p==4-------2-------4-----|
|-(2)-------------------------|-5---5-------3-------5-----|
|-(2)-------------------------|---------------------------|
|-(0)-------------------------|---------------------------|


                           ~                                      ~~~~~~~~~~~
  Q      +H.        E +Q   Q  Q  E    Q       +H.         E  +Q   H      +E
|-5------(5)------|-5r(5)-----8----|--7-------(7)------|--7r=(7)-------------|
|-8b10===(8)------|-8-(8)--5-------|-10b12===(10)------|-10-(10)--5------(5)-|
|-----------------|----------------|-------------------|---------------------|
|-----------------|----------------|-------------------|---------------------|
|-----------------|----------------|-------------------|---------------------|
|-----------------|----------------|-------------------|---------------------|
|
| W                 Q.     q  q  E   +W                   Q.      Q  Q.
|-----------------|----------------|-------------------|---------------------|
|-----------------|----------------|-------------------|---------------------|
|-----------------|--------5--5--4-|-(4)---------------|--4-------5--4-------|
|-7---------------|-7------7--7--5-|-(5)---------------|--5-------5--5-------|
|-7---------------|-7------0--0--0-|-(0)---------------|--0-------0--0-------|
|-5---------------|-5--------------|-------------------|---------------------|


   E  E  E  E  E  E  E  E    E   E  E  E  E  E  E  E
|-------10-------12-------|-10--------12-------------|
|-13-10----13-10----13-10-|-----13-10----13-10-13-10-|
|-------------------------|--------------------------|
|-------------------------|--------------------------|
|-------------------------|--------------------------|
|-------------------------|--------------------------|
|
|  W                        +E   E  E  E  E  E  E  E
|-------------------------|--------------------------|
|-------------------------|--------------------------|
|-------------------------|--------------------------|
|--5----------------------|-(5)--------------------2-|
|--5----------------------|-(5)-----------3--------2-|
|--3----------------------|-(3)--0--3--5-----5--3--0-|


   |--3---|  |--3--|  |--3--|  |--3--|    |---3---|  |---3---|  |--------3--------|
   E   E  E  E  E  E  E  E  E  E  E  E    E  E    E  E  E    E  E  E     E  E  E  E
|--------------------------------------|-----------------------15-13----12-15-13-12--|
|-13--12-10-13-12-10-13-12-10-13-12-10-|-17-15---13-17-15---13-----------------------|
|--------------------------------------|---------------------------------------------|
|--------------------------------------|---------------------------------------------|
|--------------------------------------|---------------------------------------------|
|--------------------------------------|---------------------------------------------|
|
| +W                                      E    Q          Q          Q.
|--------------------------------------|---------------------------------------------|
|--------------------------------------|---------------------------------------------|
|--------------------------------------|--5p===4----------2----------4---------------|
|-(2)----------------------------------|--5----5----------3----------5---------------|
|-(2)----------------------------------|---------------------------------------------|
|-(0)----------------------------------|---------------------------------------------|


 Buildup
  Q=92
                >
   H           +H             W
|-15b17=======(15)r--------|------------------|
|--------------------------|------------------|
|--------------------------|------------------|
|--------------------------|------------------|
|--------------------------|------------------|
|--------------------------|------------------|
|
| Gtr II                                      G
|                             >
|  W                         +H.         Q
|--------------------------|------------------|
|--------------------------|------------------|
|--------------------------|------------------|
|--7-----------------------|-(7)--------------|
|--7-----------------------|-(7)--------------|
|--5-----------------------|-(5)--------------|
|
| Gtr III
|  E     E H         S S E    E  E H    +E  E
|--------------------------|------------------|
|--------1-0-----------0h1-|-------0----(0)---|
|--2-----------------2-----|--0--4----------0-|
|--------------------------|------------------|
|--------------------------|------------------|
|--------------------------|------------------|


   W                 W
|-----------------|------------------|
|-----------------|------------------|
|-----------------|------------------|
|-----------------|------------------|
|-----------------|------------------|
|-----------------|------------------|
|
|tr V
|  W                 W
|-^0--------------|-^0---------------|
|-^0--------------|-^0---------------|
|-^2--------------|-^2---------------|
|-^4--------------|-^3---------------|
|-----------------|------------------|
|-----------------|------------------|
|
|  E E E Q  E E E    E E E Q  E E E
|--------0--------|--------0---------|
|------0----0-----|------0----0------|
|----2--------2---|----2--------2----|
|--4------------4-|--3------------3--|
|-----------------|------------------|
|-----------------|------------------|


  Gtr III
   E E H          S    S E    E E Q.   E S S E
|--------------------------|-------------------|
|----1-0---------------0h1-|------0----------0-|
|--2--------------2--------|--0-4------0-0h4---|
|--------------------------|-------------------|
|--------------------------|-------------------|
|--------------------------|-------------------|
|
| Gtr V
|  H      +E  S S T  T S E    W
|-^0------(0)--------------|-^0----------------|
|-^0------(0)-----8h10p8---|-^0----------------|
|-^5------(5)-x-x--------9-|-^4----------------|
|-^7------(7)-x-x----------|-^5----------------|
|--------------------------|-------------------|
|--------------------------|-------------------|


   E E E Q  E E E    E E E Q  E E E
|--------0--------|--------0--------|
|------0----0-----|------0----0-----|
|----2----------2-|----2----------2-|
|--4----------4---|--3----------3---|
|-----------------|-----------------|
|-----------------|-----------------|
|
|  W                 W
|-^0--------------|-^0--------------|
|-^0--------------|-^0--------------|
|-^2--------------|-^2--------------|
|-^4--------------|-^3--------------|
|-----------------|-----------------|
|-----------------|-----------------|


  E E E E E E E E   E E E E E E E E   E E E E E E E E   E E E E E E E E
|---------0-------|---------0-------|---------0-------|---------0-------|
|---0-1-0---0-1-0-|-----0-------0---|-----0-------0---|-----0-------0---|
|-2---------------|-0-4---4---4---0-|---2---2---2-----|---2---2---2-----|
|-----------------|-----------------|-4-------------4-|-3-------------3-|
|-----------------|-----------------|-----------------|-----------------|
|-----------------|-----------------|-----------------|-----------------|
|
| Gtr II
| PM------------------------------------------------------------------|
| E E E E E E E E   E E E E E E E E   E E E E E E E E   E E E E E E E E
|-----------------|-----------------|-----------------|-----------------|
|-----------------|-----------------|-----------------|-----------------|
|-----------------|-----------------|-----------------|-----------------|
|-----------------|-----------------|-----------------|-----------------|
|-0-0-0-0-0-0-0-0-|-0-0-0-0-0-0-0-0-|-0-0-0-0-0-0-0-0-|-0-0-0-0-0-0-0-0-|
|-----------------|-----------------|-----------------|-----------------|


  E E E E E E E E   E E E E E E E E   E E E E E E E E   E E E E E E E E
|---------0-------|---------0-------|---------0-------|---------0-------|
|---0-1-0---0-1-0-|-----0-------0---|-----0-------0---|-----0-------0---|
|-2---------------|-0-4---4---4---0-|---2---2---2-----|---2---2---2-----|
|-----------------|-----------------|-4-------------4-|-3-------------3-|
|-----------------|-----------------|-----------------|-----------------|
|-----------------|-----------------|-----------------|-----------------|
|
| PM------------------------------------------------------------------|
| E E E E E E E E   E E E E E E E E   E E E E E E E E   E E E E E E E E
|-----------------|-----------------|-----------------|-----------------|
|-----------------|-----------------|-----------------|-----------------|
|-----------------|-----------------|-----------------|-----------------|
|-----------------|-----------------|-----------------|-----------------|
|-0-0-0-0-0-0-0-0-|-0-0-0-0-0-0-0-0-|-0-0-0-0-0-0-0-0-|-0-0-0-0-0-0-0-0-|
|-----------------|-----------------|-----------------|-----------------|


 Main Riff
  Q=184
  Gtr I
    PM--|   PM--|   PM----|   PM--|   PM|
  E S S E E S S E E S S   E E S S E E S S E E
|-----------------------|---------------------|
|-----------------------|---------------------|
|-----------------------|---------------------|
|-----------------3-----|-----------------4s3-|
|-2-------2-------1-----|---2-------2-----2s1-|
|-0-0-0-0-0-0-0-0---0-0-|-0-0-0-0-0-0-0-0-----|


    PM--|   PM--|   PM----|   PM--|
  E S S E E S S E E S S   E E S S E E E E E
|-----------------------|-------------------|
|-----------------------|-------------------|
|-----------------------|-------------------|
|-----------------3-----|-----------5s4-5s7-|
|-2-------2-------1-----|---2-------3s2-3s5-|
|-0-0-0-0-0-0-0-0---0-0-|-0-0-0-0-0---------|


  Gtrs I, II
    PM--|   PM--|   PM----|   PM--|   PM|
  E S S E E S S E E S S   E E S S E E S S E E
|-----------------------|---------------------|
|-----------------------|---------------------|
|-----------------------|---------------------|
|-----------------3-----|-----------------4s3-|
|-2-------2-------1-----|---2-------2-----2s1-|
|-0-0-0-0-0-0-0-0---0-0-|-0-0-0-0-0-0-0-0-----|


    PM--|   PM--|   PM----|   PM--|
  E S S E E S S E E S S   E E S S E E E E E
|-----------------------|-------------------|
|-----------------------|-------------------|
|-----------------------|-------------------|
|-----------------3-----|-----------5s4-5s4-|
|-2-------2-------1-----|---2-------3s2-3s2-|
|-0-0-0-0-0-0-0-0---0-0-|-0-0-0-0-0---------|


   Verse
      PM--|   PM--|   PM----|   PM--|   PM|
    E S S E E S S E E S S   E E S S E E S S E E
||------------------------|---------------------|
||o-----------------------|---------------------|
||------------------------|---------------------|
||------------------3-----|-----------------4s3-|
||o-2-------2-------1-----|---2-------2-----2s1-|
||--0-0-0-0-0-0-0-0---0-0-|-0-0-0-0-0-0-0-0-----|


    PM--|   PM--|   PM----|   PM--|
  E S S E E S S E E S S   E E S S E E E E E
|-----------------------|---------------------|
|-----------------------|---------------------|
|-----------------------|---------------------|
|-----------------3-----|-----------5s4-5s7---|
|-2-------2-------1-----|---2-------3s2-3s5---|
|-0-0-0-0-0-0-0-0---0-0-|-0-0-0-0-0-----------|


    PM--|   PM--|   PM----|   PM--|   PM|
  E S S E E S S E E S S   E E S S E E S S E E
|-----------------------|---------------------|
|-----------------------|---------------------|
|-----------------------|---------------------|
|-----------------3-----|-----------------4s3-|
|-2-------2-------1-----|---2-------2-----2s1-|
|-0-0-0-0-0-0-0-0---0-0-|-0-0-0-0-0-0-0-0-----|


    PM--|   PM--|   PM----|   PM--|
  E S S E E S S E E S S   E E S S E E E E E
|-----------------------|--------------------||
|-----------------------|-------------------o||
|-----------------------|--------------------||
|-----------------3-----|-----------5s4-5s4--||
|-2-------2-------1-----|---2-------3s2-3s2-o||
|-0-0-0-0-0-0-0-0---0-0-|-0-0-0-0-0----------||


 Pre-Chorus
  W          +W           W          +W
|----------|------------|----------|--------|
|----------|------------|----------|--------|
|----------|------------|----------|--------|
|-6--------|-(6)--------|-8--------|-(8)----|
|-6--------|-(6)--------|-9--------|-(9)----|
|-4--------|-(4)--------|-6--------|-(6)----|


    PM--|   PM--|   PM----|   PM--|
  E S S E E S S E E S S   E E S S E q  q
|-----------------------|-----------------|
|-----------------------|-----------------|
|-----------------------|-----------------|
|-----------------------|-----------------|
|-2-------2-------2-----|---2-------2--2--|
|-0-0-0-0-0-0-0-0-0-0-0-|-0-0-0-0-0-0--0--|


    PM--|   PM--|   PM----|   PM--|
  E S S E E S S E E S S   E E S S E q  q
|-----------------------|-------------------|
|-----------------------|-------------------|
|-----------------------|-------------------|
|-----------------------|-------------------|
|-2-------2-------2-----|---2-------2--2----|
|-0-0-0-0-0-0-0-0-0-0-0-|-0-0-0-0-0-0--0----|


  W          +W           W          +W
|----------|------------|----------|--------|
|----------|------------|----------|--------|
|----------|------------|----------|--------|
|-6--------|-(6)--------|-8--------|-(8)----|
|-6--------|-(6)--------|-9--------|-(9)----|
|-4--------|-(4)--------|-6--------|-(6)----|


    PM--|   PM--|   PM----|   PM--|   PM|
  E S S E E S S E E S S   E E S S E E S S E E
|-----------------------|---------------------|
|-----------------------|---------------------|
|-----------------------|---------------------|
|-----------------3-----|-----------------4s3-|
|-2-------2-------1-----|---2-------2-----2s1-|
|-0-0-0-0-0-0-0-0---0-0-|-0-0-0-0-0-0-0-0-----|


    PM--|   PM--|
  E S S E E S S E E E   +E  Q  Q  Q.
|---------------------|----------------|
|---------------------|----------------|
|-------------------5-|-(5)-4--2--4----|
|-------------------5-|-(5)-5--3--5----|
|-2-------2-------2---|----------------|
|-0-0-0-0-0-0-0-0-0---|----------------|


   Chorus
    W          Q.   q  q  E   +W           Q.   Q  Q.
||-----------|--------------|------------|---------------|
||o----------|--------------|------------|---------------|
||-----------|------5--5--4-|-(4)--------|-4----5--4-----|
||--7--------|-7----7--7--5-|-(5)--------|-5----5--5-----|
||o-7--------|-7----0--0--0-|-(0)--------|-0----0--0-----|
||--5--------|-5------------|------------|---------------|


  W          +E  E E E E E E E   +W           E Q  Q  Q.    4x
|----------|-------------------|------------|---------------||
|----------|-------------------|------------|--------------o||
|----------|-------------------|------------|-5p4--2--4-----||
|-5--------|-(5)-------------2-|-(2)--------|-5-5--3--5-----||
|-5--------|-(5)-------3-----2-|-(2)--------|--------------o||
|-3--------|-(3)-0-3-5---5-3-0-|-(0)--------|---------------||


  Gtrs I, II
                                        >
  W          +W           +W           +W
|----------|------------|------------|--------*|
|----------|------------|------------|--------*|
|----------|------------|------------|--------*|
|-7--------|-(7)--------|-(7)--------|-(7)----*|
|-7--------|-(7)--------|-(7)--------|-(7)----*|
|-5--------|-(5)--------|-(5)--------|-(5)----*|


Duration Legend
---------------
W - whole; H - half; Q - quarter; E - 8th; S - 16th; T - 32nd; X - 64th; a - acciaccatura
+ - note tied to previous; . - note dotted; .. - note double dotted
Uncapitalized letters represent notes that are staccato (1/2 duration)
Irregular groupings are notated above the duration line
Duration letters will always appear directly above the note/fret number it represents the
duration for.  Duration letters with no fret number below them represent rests.  Multi-
bar rests are notated in the form Wxn, where n is the number of bars to rest for.  Low
melody durations appear below the staff

Tablature Legend
----------------
 h   - hammer-on
 p   - pull-off
 b   - bend
 pb  - pre-bend
 r   - bend release (if no number after the r, then release immediately)
 /\  - slide into or out of (from/to "nowhere")
 s   - legato slide
 S   - shift slide
  - natural harmonic
[n]  - artificial harmonic
n(n) - tapped harmonic
 ~   - vibrato
 tr  - trill
 T   - tap
 TP  - trem. picking
 PM  - palm muting
\n/  - tremolo bar dip; n = amount to dip
 \n  - tremolo bar down
 n/  - tremolo bar up
/n\  - tremolo bar inverted dip
 =   - hold bend; also acts as connecting device for hammers/pulls
 <>  - volume swell (louder/softer)
 x   - on rhythm slash represents muted slash
 o   - on rhythm slash represents single note slash

Misc Legend
-----------
 |  - bar
||  - double bar
||o - repeat start
o|| - repeat end
*|  - double bar (ending)
 :  - bar (freetime)
 $  - Segno
 &  - Coda
Tempo markers -  = BPM(8/16=s8/s16), where s8 = swing 8ths, s16 = swing 16ths
Comments