Blaze - 1 7 Chords & Tabs

 

1 7 Chords & Tabs

Blaze Chords & Tabs

Version: 1 Type: Tab 0 ratings
1 star 2 stars 3 stars 4 stars 5 stars
comments

1 7 Tab

Dedicated to Michelle Dixon.

Verse (Clean)
1--------------------------------
2--------------------------------
3--------------------------------
4---------0-----0-----0-----0----
5------12-----9-----7-----5------
6---10------7-----5-----3-------- X10

Chorus (Distorted) 
1-------------------------------------------
2-------------------------------------------
3-------------------------------------------
4-------------------------------------------
5---12-12-xx--9-9-xx--7-7-xx--5-5-xx--------
6---10-10-xx--7-7-xx--5-5-xx--3-3-xx-------- X4

Solo (Clean)
1------------------------------------------------
2------------------------------------------------
3---------0-----0------0------0------------------
4---------0-----0------0------0------------------
5------12-----9------7------5--------------------
6---10------7------5------3----------------------  X4
[ Tab from: http://www.guitartabs.cc/tabs/b/blaze/1_7_tab.html ]
End Chorus (Baring)(Distorted)
1---10-10--7-7--5-5--3-3---------------------------
2---10-10--7-7--5-5--3-3---------------------------
3---11-11--8-8--6-6--4-4---------------------------
4---12-12--9-9--7-7--5-5---------------------------
5---12-12--9-9--7-7--5-5---------------------------
6---10-10--7-7--5-5--3-3--------------------------- X4

Solo 2  (Distorted)
1---------10-----10-----10-----10-----------
2-------------------------------------------
3-------------------------------------------
4-------------------------------------------
5------12------9------7------5--------------
6---10-------7------5------3---------------- X2

End (Clean)
1--------------------------------------------------
2--------------------------------------------------
3-----------0---------0---------0---------0--------
4---------0---0-----0---0-----0---0-----0----------
5------12---------9---------7---------5------------
6---10----------7---------5---------3-------------- X2

Verse
Chorus
Verse
Chorus
Verse
Solo
Chorus
Verse
End Chorus
Verse
Solo 2
End

Comments