Blasphemy - Breakdown Chords & Tabs

 

Breakdown Chords & Tabs

Blasphemy Chords & Tabs

Version: 1 Type: Tab 0 ratings
1 star 2 stars 3 stars 4 stars 5 stars
comments

Breakdown Tab

Song-Breakdown
Band-Blasphemy

This is a song that i wrote with my band please rate it.



Chorus

E||-----------------------
B||-----------------------
G||-----------------------
D||--6----8----9--2----4--                x4
A||--6----8----9--2----4--
E||--4----6----7--0----2--


Interlude

E||-------------------------------------------
B||-------------------------------------------
G||-------------------------------------------
D||--66---4----66---4-----222----4------------                x4
A||--66---4----66---4-----222----4------------
E||--44---2----44---2-----000----2------------


Verse
[ Tab from: http://www.guitartabs.cc/tabs/b/blasphemy/breakdown_tab.html ]
E||--------------------------------------------
B||--------------------------------------------
G||--------------------------------------------
D||--2----4----6----66666-----5--8---6-666-4---           x2
A||--2----4----6----66666-----5--8---6-666-4---
E||--0----2----4----44444-----7--6---4-444-2---


chourus x4

outro

E||-----------------------------------
B||-----------------------------------
G||-----------------------------------
D||--6----4----6----6666-----6- 4---6-           
A||--6----4----6----6666-----6--4---6-
E||--4----2----4----4444-----4--2---4-



Thats it pretty easy i know....i'll add the lead part later email me at 
w4nk3rs@hotmail.com if u wanna take the piss.
Comments