Blanks 77 - Chelsea Girls Chords & Tabs

 

Chelsea Girls Chords & Tabs

Blanks 77 Chords & Tabs

Version: 2 Type: Bass Tab 0 ratings
1 star 2 stars 3 stars 4 stars 5 stars
comments

Chelsea Girls Bass Tab

   
Chelsea Girls
by the Blanks 77

Arha@Redrose.net

Intro
G----------------
D-0-0-0-0-0-0-0-0
A----------------
E----------------

Verse
G-----------------------------|
D--4-5-6-7-6-5-4--------------|
A-5-------------7-5-4---------|
E--------------------7-5-3-2-0|
[ Tab from: http://www.guitartabs.cc/tabs/b/blanks_77/chelsea_girls_btab_ver_2.html ]
G-----------------------------------
D-----------------------------------
A-----------------------------------
E-5-5-5-5--4--5-5-5--4-5-4-5-4-5-4-5

Chorus (x4)
G---------------
D---------------
A-7-7-7-7--5-5-5
E---------------

G------------------
D------------------
A------------------
E-5-5-5-5--4--5-5-5 Solo part
                             
G----------------------------
D----------------------------
A------5-5-5--7-7-7-7-7-7-7-7
E-3-3-3----------------------
Comments