Blacktop Recess - Worst Case Scenrio Chords & Tabs

 

Worst Case Scenrio Chords & Tabs

Blacktop Recess Chords & Tabs

Version: 1 Type: Bass Tab 1 rating
1 star 2 stars 3 stars 4 stars 5 stars
comments

Worst Case Scenrio Bass Tab

Worst Case Scenario (drop c)
written by: Andress, Bartsch, Bray, Froese and WOlfe

Intro

-----------------------------------------------------
-----------------------------------------------------
-----------------------------------------------------
-0-00000-00000-00000-0000-9-99999-99999-99999-9999---


-----------------------------------------------------
-----------------------------------------------------
-----------------------------------------------------
-5-55555-55555-55555-5555----------------------------

Verse

--------9------------7-------------9-----------7--------
--------------------------------------------------------
--------------------------------------------------------
-0-0000--0000-0-0000---0000-0-0000--0000-0-0000----0000-


--------9------------7-------------9-----------7---------
---------------------------------------------------------
---------------------------------------------------------
-9-9999--9999-9-9999---9999-5-5555--5555-5-5555--5555----


--------7-----7-----7------------------------------------
---------------------------------------------------------
---------------------------------------------------------
-0-0000--0000--0000--0000--------------------------------

Pre-Chorus X2
[ Tab from: http://www.guitartabs.cc/tabs/b/blacktop_recess/worst_case_scenrio_btab.html ]
--------7-----------7----------7-----------7--------------
----------------------------------------------------------
----------------------------------------------------------
-444444--4-4-555555--5-5-777777--7-7-555555--55-----------

Chorus 1 X2


------------------------------------------------------
------------------------------------------------0-----
-5-55555-55555-55555-5555-----------------------------
--------------------------5-55555-5555-00*-0*-00-0*-0-

Chorus 2 X2
------------------------------------------------------
-----------0--------------------------------0---------
------------------------------------------------------
-00*-0*-0-0-0*-0-99*-9*-0-55*-5*-0-00*-0-0-0-0--------

Intro 

Verse 

Pre-Chorus X2

Chorus 1 X2

Chorus 2 X2

Bridge

-----------------------------------------------------
-----------------------------------------------------
-----------------------------------------------------
-999999-5-5-5-5-5-5-5-5-5-999999-5-5-5-5-5-5-5-5-5---


-----------------------------------------------------
-----------------------------------------------------
-----------------------------------------------------
-999999-5-5-5-5-5-5-5-5-5-5-5-5-5^-------------------

Chorus 1 2X

Chorus 2 2X

www.blacktoprecess.tk
Comments