Blacktop Recess - Sink Or Swim Chords & Tabs

 

Sink Or Swim Chords & Tabs

Blacktop Recess Chords & Tabs

Version: 1 Type: Bass Tab 1 rating
1 star 2 stars 3 stars 4 stars 5 stars
comments

Sink Or Swim Bass Tab

Sink Or Swim
written by: Andress, Bartsch, Bray, Froese and WOlfe

Intro 1
-----------------------------------------------------
-----------------------------------------------------
--------------2222---------------2222----------------
-333333333333------2222222222222------000000000000---


-----------------------------------------------------
-----------------------------------------------------
-22222h3-3-3-33-3-33-2-------------------------------
-----------------------------------------------------

Intro 2

-----------------------------------------------------
-----------------------------------------------------
-----------------------------------333-3-33-33-2-----
-3-3--------2-2---------0-0--------------------------

Verse 1

-----------------------------------------------------
-----------------------------------------------------
-------------------------333-3-33-33-2---------------
-3-3-3-3-2-2-2-2-0-0-0-0-----------------------------

Verse 2
[ Tab from: http://www.guitartabs.cc/tabs/b/blacktop_recess/sink_or_swim_btab.html ]
-----------------------------------------------------
-----------------------------------------------------
----------------------------------------333-3-33-33-2
33-33-33-33-22-22-22-22-00*-00*-00*-00*--------------

Chorus X2

-----------------------------------------------------
-----------------------------------------------------
----------------------------------------333-3-33-33-2
-33333-33-33333-33-22--22--22-000-00-00--------------

Intro 2

Verse 2

Verse 1

Chorus X2

Bridge 1

-----------------------------------------------------
-----------------------------------------------------
5555555555555555-3333333333333333--------------------
-----------------------------------------------------

Bridge 2
-----------------------------------------------------
-----------------------------------------------------
55555555-7777-5555-33333333333333333-----------------
-----------------------------------------------------

Bridge 1

Bridge 3

-----------------------------------------------------
-----------------------------------------------------
55555555-7777-5555-3-*-3-*-3-*-3---------------------
---------------------------------2h3p2---------------

Chorus X2

www.blacktoprecess.tk
Comments