Blacktop Recess - Scapegoat Lullaby Chords & Tabs

 

Scapegoat Lullaby Chords & Tabs

Blacktop Recess Chords & Tabs

Version: 1 Type: Bass Tab 1 rating
1 star 2 stars 3 stars 4 stars 5 stars
comments

Scapegoat Lullaby Bass Tab

   
Scapegoat Lullaby (drop c)
written by: Andress, Bartsch, Bray, Froese and Wolfe.

intro/verse 5x
----------------------------------------------------------
----------------------------------------------------------
---------5---5---------5---5------------------------------
-0-000-0--0-0--0-000-0--0-0--7-777-77-77-5-5-5-55-5h7-5p0-

chorus 4X
[ Tab from: http://www.guitartabs.cc/tabs/b/blacktop_recess/scapegoat_lullaby_btab.html ]
-------------------------------------------------------
-----7---7--------7----7---7---10---10---------12------
---5----5----5*-5----5--------8----8----10*-10---------
-0----0----0-------0----0---0----0----0----------0-3-3-

Intro Verse 3X

Chorus 4X

bridge/outro 3X (8-7-7) played only in first one

-------------------------------------------------------
-------------------------------------------------------
-------------------------------------------------------
-8-7-7--0-00-0*-0-0-00-0*-0-8-88-8*-8-8888888p7-7-7--0-

www.blacktoprecess.tk
Comments