Blacktop Recess - Hear Me Out Chords & Tabs

 

Hear Me Out Chords & Tabs

Blacktop Recess Chords & Tabs

Version: 1 Type: Bass Tab 1 rating
1 star 2 stars 3 stars 4 stars 5 stars
comments

Hear Me Out Bass Tab

Hear Me Out (drop c)
written by: Andress, Bartsch, Bray, Froese and Wolfe




intro/verse 4X
-----------------------------------------------------
-----------------------------------------------------        
-----------------------------------------------------
-0-0-00-0-0-10-8-8-88-8-8-8h10-----------------------


Chorus 4X
-----------------------------------------------------
-----------------------------------------------------
-----------------------------8888p7-7----------------
-3-3-33-3/5-5-5/7-7-0--0--0--------------------------

Bridge 2X
-----------------------------------------------------
-----------------------------------------------------
-----------8888p7-7----------------------------------
-3--5--0---------------------------------------------

Chorus 4X
[ Tab from: http://www.guitartabs.cc/tabs/b/blacktop_recess/hear_me_out_btab.html ]
Intro/Verse 4X

Chorus 4X

Bridge 2X

Chorus 4X

Outro 1

-----------------------------------------------------
-----------------------------------------------------
-----------------------------------------------------
-3-3-33-3/5-5*-8-8-8-88-8-88-7-----------------------

Outro 2

-----------------------------------------------------
-----------------------------------------------------
-----------------------------------------------------
-3-3-33-3/5-5*-1-1-1-1h3p1-1-3*3*3*------------------

Outro 1

Outro 3

-----------------------------------------------------
-----------------------------------------------------
-----------------------------------------------------
-3-3-33-3/5-5*-1-------------------------------------

....and the sun comes up

Intro/Verse 3X end on 8h10

www.blacktoprecess.tk
Comments