Blacktop Recess - And All The Street Lights Went Out Chords & Tabs

 

And All The Street Lights Went Out Chords & Tabs

Blacktop Recess Chords & Tabs

Version: 1 Type: Bass Tab 1 rating
1 star 2 stars 3 stars 4 stars 5 stars
comments

And All The Street Lights Went Out Bass Tab

And All The Street Lights Went Out (drop c)
written by Andress, Bartsch, Bray, Froese and Wolfe

Intro

--------------------5----------------------------------
-----------------3h5-----------------------------------
-------------------------------------------------------
-0-0-0-7/1-0-0-0-----5-5-5-/7-5-5-5-5-/7---------------


--------------------5--------------------------------
-----------------3h5---------------------------------
-----------------------------------------------------
-0-0-0-7/1-0-0-0-----5-5-5-4-4-4-2-------------------

Verse X2

[ Tab from: http://www.guitartabs.cc/tabs/b/blacktop_recess/and_all_the_street_lights_went_out_btab.html ]
-----------------------------------------------------
-----------------------------------------------------
-----------------------------------------------------
-0-000-2p0-0-3p0-000-2p0-3p0-0-000-2p0-5-3-2-2-2h3---


-----------------------------------------------------
-----------------------------------------------------
-----------------------------------------------------
-5-5-7p5-5-5-5-7p5-8p5-5-5-5-7p5-8-7-5-5-5h7---------

Chorus X2

-----------------------------------------------------
-----------------------------------------------------
-------------------------------5-5-5-55--------------
-0-0-00-0h2-2-2-22-2h3-3-3-33-3----------------------


-----------------------------------------------------
-----------------------------------------------------
-----------------------------------------------------
-77*-77*-77*-77*-7*-7*-------------------------------

Intro 

Verse X2

Chorus X2

www.blacktoprecess.tk
Comments