Blackstar Rising - Instrumental Chords & Tabs

 

Instrumental Chords & Tabs

Blackstar Rising Chords & Tabs

Version: 1 Type: Tab 0 ratings
1 star 2 stars 3 stars 4 stars 5 stars
comments

Instrumental Tab

-------------------------------------------------------

Blackstar - Instrumental
>From the album Barbed wire soul

-------------------------------------------------------

Transcribed by: Johan Henriksson
E-mail: n96johh@tycho.helsingborg.se

-------------------------------------------------------

Riff 1
e|-------------|------------|-----------|-------------|
B|-------------|------------|-----------|-------------|
G|-------------|----------3-|-----------|-------------|
D|---5---5---5-|---5--3h5---|-5-3-------|-5/6---5-3---|
A|-------------|------------|-----5-3-1-|-3/4-x-3-1---|
E|-3---3---3---|-3----------|-----------|-------------|

Riff 2
Guitar 1
e|--------------------|
B|--------------------|
G|------------------3-|
A|------------------1-|
E|-3-3-3-3-3-3-3...---|
[ Tab from: http://www.guitartabs.cc/tabs/b/blackstar_rising/instrumental_tab.html ]
Guitar 2
e|-----------------------------------------------------------|
B|-----------------------------------------------------------|
G|-----------------------------------------------------------|
D|-----------------6-5-3-----------------------------------3-|
A|-----------------------6-5-3---------------------4-3-1---1-|
E|-3-3-3-3-3-3-3-3-------------6-5-3-3-3-3-3-3-3-3-------4---|

Riff 3
e|---------------|
B|---------------|
G|---------------|
D|-3-----3--5--2-|
A|-1--5--1--3--0-|
E|----3----------|

Riff 4
e|--------------------------|
B|--------------------------|
G|----------------------3---|
D|---5---5---5----3p5-5---5-|
A|--------------------------|
E|-3---3---3----------------|

Riff 5
e|-------------------------|-----|-----|
B|-------------------------|-----|-----|
G|-------------------------|-----|-----|
D|-6-5-3---3---------------|-----|-----|
A|-------6---6-5-3-6-5-3---|-3---|---3-|
E|-----------------------6-|---3-|-3---|

Riff 6
e|-----------------------|
B|-----------------------|
G|-----------------------|
D|-----5-5/6-5-3-3/5-3---|
A|-5-------------------5-|
E|-3---------------------|
Comments