Blackout Sunday - Dead And Empty Chords & Tabs

 

Dead And Empty Chords & Tabs

Blackout Sunday Chords & Tabs

Version: 2 Type: Tab 0 ratings
1 star 2 stars 3 stars 4 stars 5 stars
comments

Dead And Empty Tab

   
Dead and Empty
Blackout Sunday

Drop-D

INTRO
E----------------------------------------------------------------------------------------|
B----------------------------------------------------------------------------------------|
G---7---7---7----------------7---7---7----------------7---7---7--------------------------|
D---7---7---7----------------7---7---7----------------7---7---7--------------------------|     2X
A---5---5---5----------------5---5---5----------------5---5---5--------------------------|
D----------------------------------------------------------------------------------------|
[ Tab from: http://www.guitartabs.cc/tabs/b/blackout_sunday/dead_and_empty_tab_ver_2.html ]
On The Third Time
E--------------------------------------------------------------------------------------|
B--------------------------------------------------------------------------------------|
G---7---7---7-----------7-7-7-7-7-7-7-7------------------------------------------------|
D---7---7---7-----------7-7-7-7-7-7-7-7------------------------------------------------|
A---5---5---5-----------5-5-5-5-5-5-5-5------------------------------------------------|
D--------------------------------------------------------------------------------------|

Main Riff
Also The Verse. The Verse is Palm Muted

E--------------------------------------------------------|
B--------------------------------------------------------|
G--7---7---7---------------------------------------------|
D--7---7---7-------8--8--8------5------------------------|
A--5---5---5-------8--8--8------5------------------------|
D------------------8--8--8------5------------------------|

Interlude

E----------------------------------------------------------|
B----------------------------------------------------------|
G-------------5B------------------7B-----------------------|
D--------5H7---------------5H7-----------------------------|      3X
A---5H7----------------5H7---------------------------------|
D----------------------------------------------------------|

On The Fourth Time You Play

E-----------------------------------------------|
B-----------------------------------------------|
G-----------------------------------------------|
D------------5B-----5-5-5-5-5-5-5-5-------------|
A------5H7--------------------------------------|
D--5H7------------------------------------------|
Comments