Blackmores Night - Avalon Chords & Tabs

 

Avalon Chords & Tabs

Blackmores Night Chords & Tabs

Version: 1 Type: Tab 0 ratings
1 star 2 stars 3 stars 4 stars 5 stars
comments

Avalon Tab

#----------------------------#
# Blackmore's Night - Avalon #
#----------------------------#

Edited by: Magnus Ottosson
Texted by: Magnus Ottosson

[ Tab from: http://www.guitartabs.cc/tabs/b/blackmores_night/avalon_tab.html ]
Intro
						
			      same in octave lower	
E--------|--1-------------------|-------------------|--1-----------1------------|
C-----1--|-----1------1---------|----------------1--|-----1-----1------1-----1--|
G--------|-------2-3------------|-------------------|-------2-3----------2-3----|
D--------|--------------3-------|--3----------------|--3-----------3------------|
A--------|--------------------3-|-----3-0^1-3-------|---------------------------|
A--------|--------------------3-|-------------------|---------------------------|
E--------|----------------------|-------------1-----|---------------------------|


E--1-----------1------------|-------------------------|-------------1-----------| 
C----1-----1------1-----1---|--3---1------------------|-----1-3-1------4-3-1----|
G------2-3----------2-3-----|---------3---2--0-----2--|--3--------3----------3--|
D--3-----------3------------|-------------------------|-------------0-----------|
A---------------------------|--1---0------------------|-------------------------|
E---------------------------|---------3---1--0--------|-------------------------|

E---------------------|
C--1---------------1--| two first
G-----3-2-3-2-0-------| tacts here
D---------------3-----|
A--1------------------|
E-------------0-------|
Comments