Blackmore Ritchie - Temple Of The King Chords & Tabs

 

Temple Of The King Chords & Tabs

Blackmore Ritchie Chords & Tabs

Version: 1 Type: Tab 1 rating
1 star 2 stars 3 stars 4 stars 5 stars
comments

Temple Of The King Tab

   
this is the intro:

   am                              f
e |------------------------------|----------------------|
b |--5----3h5p3--1---3--1--2-----|--10--8---------------|
g |------------------------------|---------9--7---------|
d |------------------------------|---------------10--7--|
a |------------------------------|----------------------|
e |------------------------------|----------------------|

   g                               am
e |------------------------------|----------------------|
b |--3----1h3p1--0---1--0--------|------------0--1--3---|
g |------------------------2-----|--2--4---5------------|
d |------------------------------|----------------------|
a |------------------------------|----------------------|
e |------------------------------|----------------------|

   am                              g
e |------------------------------|----------------------|
b |--5----3h5p3--1---3--1--0-----|--10--8---------------|
g |------------------------------|---------9--7---------|
d |------------------------------|---------------10--7--| 
a |------------------------------|----------------------|
e |------------------------------|----------------------|

   dm             f                am
e |------------------------------|----------------------|
b |--5----3h5p3--1---3--0--------|------------5--3------|
g |------------------------2-----|--2--4---5--------4---(5)-1
d |------------------------------|----------------------|
a |------------------------------|----------------------|
e |------------------------------|----------------------|


this is the solo part:
[ Tab from: http://www.guitartabs.cc/tabs/b/blackmore_ritchie/temple_of_the_king_tab.html ]
   am       f              am       f             am          g
e |------------------------------|---------8--10--12--10--8--10--|
b |-----8------8--10--/13\---10--|--8--10------------------------|
g |--------10--------------9-----|-------------------------------|
d |--7---------------------------|-------------------------------|
a |------------------------------|-------------------------------|
e |------------------------------|-------------------------------|

           dm     e   am        f             am       
e |--8--10--/12\-7---7-8----7-8--|------------8--12--10--12--|
b |------------------------------|----8--10------------------|
g |------------------------------|10-------------------------|
d |------------------------------|---------------------------|
a |------------------------------|---------------------------|
e |------------------------------|---------------------------|

     f           am            g    dm     e        
e |--8-----------------7--8--10--|--8--10--12b13--12b13r12b13r12b13r-|
b |----------------10------------|-----------------------------------|
g |-----10--12--9----------------|-----------------------------------|
d |------------------------------|-----------------------------------|
a |------------------------------|-----------------------------------|
e |------------------------------|-----------------------------------|


e |--r12b13r12b13r---------------|
b |------------------------------|
g |------------------------------|
d |------------------------------|
a |------------------------------|
e |------------------------------|
Comments