Blackmore Ritchie - Possum Goes To Prague Chords & Tabs

 

Possum Goes To Prague Chords & Tabs

Blackmore Ritchie Chords & Tabs

Version: 1 Type: Tab 0 ratings
1 star 2 stars 3 stars 4 stars 5 stars
comments

Possum Goes To Prague Tab

VERSE NR1

E------------0--------0h7---------5---3----5p3p2p0h3p0-3p0------------------------------------------0------
B------0------------0----------------------------------------------------0------1p0--------0------0----0--
G----------------------------------------------------------------------------------------2------4---------4   
D-2------------------------------------------------------------------------------------------------------------
A---------------------------------------------------------------------------------------------------------------
E---------------------------------------------------------------------------------------------------------------

|----------------------------------------------------------------------------------------------------------------
|----------------------------------------------------------------------------------------------------------------
|----2---0h2p0------------------------------------------------------------------------------------------------
|---------------------1h4-2------------------------------------------------------------------------------------
|----------------------------------------------------------------------------------------------------------------
|----------------------------------------------------------------------------------------------------------------

VERSE NR2

|----------------8------12/1514p11-11h14p11-----------------------------------------------------------
|-----------8--------------------------------------------12-----------------------------------------------------
|-------9-------------------------------------------------------11----------------------------------------------
|---10-------------------------------------------------------------------13------------------------------------
|--------------------------------------------------------------------------------14-----------------------------
|----------------------------------------------------------------------------------------------------------------

|----------------------------------------------------------------------------------------------------------------
|---------------------------------------------1--0h1p0--------------------------------------------------------
|-------------------------------0h2-------------------------2--------------------------------------------------
|--------------------------2h4----------------------------------------------------------------------------------
|--------------------2---------------------0--------------------------------------------------------------------
|------0--2--3--------------------------------------------------------------------------------------------------

|-------------------------------------------5--3--5p3p2p0-----------0-----------------------------0---------
|-------------4p0-----------------0---------------------------3/5-------------1p0-----0--------0-----0------
|-------4----------------------5----------------------------------------------------2------2/4------------4---
|----------------------------------------------------------------------------------------------------------------
|-2--------------------------------------------------------------------------------------------------------------
|----------------------2-----------------------------------------------------------------------------------------
[ Tab from: http://www.guitartabs.cc/tabs/b/blackmore_ritchie/possum_goes_to_prague_tab.html ]
|----------------------------------------------------------------------------------------------------------------
|----------------------------------------------------------------------------------------------------------------
|----------------------------------------------------------------------------------------------------------------
|----1--4--1--2------------------------------------------------------------------------------------------------
|----------------------------------------------------------------------------------------------------------------
|----------------------------------------------------------------------------------------------------------------

VERSE NR3
|----------------------------------------------------------------------------------------------------------------
|-----------------0---------------0----------------------------------------------5------3--------1----------0-----
|---------------0---------------5-------------0------0-------0--------0---------------------------------------
|-------------4---------------4--------------2-----4-------5-------5------------------------------------------
|---------6---------------6----------------------------------------------------0------0------0---------0------
|----------------------------------------------------------------------------------------------------------------

|------------------------3--2--3p2p0--------------------------------------------------------------------------
|------------3------------------------------------------------0----------------0--------------------------------
|--------2---------2--------------------------------------0----------------5------------------------------0h2-
|------------------------------------------------------4-----------------4----------------------------2h4------
|--------------------------------------------------6------------------6-----------------------------2-----------
|------2-----------------------------------------------------------------------------------0--2--3-------------

|-----------------------------------------------------------3--2--3p2p0--------------0--------------------
|---------------------------------------------3-----------------------------------7-----7----------------
|-----0-------------0h4--2h4-4p2p0---------2------2---------------------------8------------8h9-------
|--------2------2------------------------0---------------------------------9---------------------------
|-----------3-------------------------------------------------------------------------------------------------
|----------------------------------------------------------------------7-----------------------------


VERSE NR4

|---------------------------------------------------------8--7---------------------11p0--11--12--14--------
|-----------------------------------------------0---10------------------------12-------------------------------
|--------------------------5--4-------------8-----------------------------11-----------------------------------
|-----------------4---7------------------9----------------------------13---------------------------------------
|---------5--6--------------------------------------------------------------------------------------------------
|------7------------------------------7-------------------------------------------------------------------------

|-15---14h15p1412----10---8h10p87-----(12)----------------------------------------------------------
|---------------------------------------(12)--12---10------------9----------------------------
|------------------------------------------------------9-------9------------------------------
|----------------------------------------------------------------------------------------------------------------
|----------------------------------------------------------------------------------------------------------------
|---------------------------------------------------------0-----------------------------


How to play the song

VERSE NR1						X2
VERSE NR2						X1
VERSE NR3						X1
VERSE NR1						X2
VERSE NR2						X1
VERSE NR4						X1

That's the whole song, it's only one minute long. But it's very hard to learn and play,
and it's a very cool song you can impress your friends with.


Please send me an E-mail to say what think about my tab.

Stefskar@online.no



Comments