Blackmill - Miracle Chords & Tabs

 

Miracle Chords & Tabs

Blackmill Chords & Tabs

Version: 1 Type: Tab 0 ratings
1 star 2 stars 3 stars 4 stars 5 stars
comments

Miracle Tab

(0:15 (really softly until 0:28), 1:27, & 1:55) 
*From 0:15-0:56 this is played slow
*At 1:55 there is length between the notes above and goes until 2:24 (2 times through)

e|-10---10/12---9---9/10---7---5/7---7---12/14---|
B|-----------------------------------------------|
G|-----------------------------------------------|   x4
D|-----------------------------------------------|
A|-----------------------------------------------|
E|-----------------------------------------------|      

(2:26 & 5:20)
e|-12---------12---------12---------10-----9--|
B|---------10---------10---------10-----------|
G|--------------------------------------------|   x4
D|--------------------------------------------|
A|--------------------------------------------|
E|--------------------------------------------|
[ Tab from: http://www.guitartabs.cc/tabs/b/blackmill/miracle_tab.html ]
(3:25)(For better effect you can slide from 9 -> 12 every time but the last)
e|--12----12----10-9-7-5-0---12----12----12---14---12---|
B|-----10----10-----------------10----10----------------|
G|------------------------------------------------------|   x4
D|------------------------------------------------------|
A|------------------------------------------------------|
E|------------------------------------------------------|

(4:07)
*This can be played with the 17\14 played as 14
e|-12----12----14---17---17\14---17---12---17---14--|
B|----10----10--------------------------------------|
G|--------------------------------------------------|
D|--------------------------------------------------|
A|--------------------------------------------------|
E|--------------------------------------------------|

e|-17---12---10---9---7-------5-------7---|
B|----------------------------------------|
G|----------------------------------------|
D|----------------------------------------|
A|----------------------------------------|
E|----------------------------------------|
Comments