Blacklisted - I Am Weighing Me Down Chords & Tabs

 

Blacklisted Chords & Tabs

Version: 1 Type: Tab 0 ratings
1 star 2 stars 3 stars 4 stars 5 stars
comments

I Am Weighing Me Down Tab

I figured most of this song out without actually having a guitar in front of me, so once 
get a chance I'll correct anything wrong.
/ - slide
b - bend
r - release

Verse
Guitar 1 x6 (throw some palm mutes in)
D|-------------------------------------|
A|-------------------------------------|
F|-------------------------------------|
C|-2-2-2--3/6-6-6--3/5-5-5--3-6-6/5-5--|
G|-2-2-2--3/6-6-6--3/5-5-5--3-6-6/5-5--|
D|-0-0-0--1/4-4-4--1/3-3-3--1-4-4/3-3--|
Guitar 2 x1
D|--------------------------------------------------|
A|--------------------------------------------------|
F|-9-9-9--10/13-13-13--10/12-12-12--10-13-13-12/10--|
C|--------------------------------------------------|
G|-7-7-7---8/11-11-11---8/10-10-10---8-11-11-10/8---|
D|--------------------------------------------------|


Chorus
Guitar 1 x1
D|---------------------------------------|
A|---------------------------------------|
F|---------------------------------------|
C|-2-2-6--2-2-6--2-2-6---5-5-5-6-6-6--2--|
G|-2-2-6--2-2-6--2-2-6---5-5-5-6-6-6--2--|
D|-0-0-4--0-0-4--0-0-4---3-3-3-4-4-4--0--|
Guitar 2 x1
D|-----4------4------4-------------------|
A|-----7b9----7b9----7b9-----------------|
F|---------------------------------------|
C|---------------------------------------|
G|---------------------------------------|
D|---------------------------------------|

[ Tab from: http://www.guitartabs.cc/tabs/b/blacklisted/i_am_weighing_me_down_tab.html ]
Verse
Guitar 1 x1
D|-12----12-12-12-12-12-12-12--14----14-14-14-14-14-14-14--12----12-12-12-12-12-12-12--|
A|-15b17-17-17-17-17-17-17-17--17b19-19-19-19-19-19-19-19--15b17-17-17-17-17-17-17-17--|
F|-------------------------------------------------------------------------------------|
C|-------------------------------------------------------------------------------------|
G|-------------------------------------------------------------------------------------|
D|-------------------------------------------------------------------------------------|
Guitar 2 x1
D|--------------------------------------------------|
A|--------------------------------------------------|
F|-9-9-9--10/13-13-13--10/12-12-12--10-13-13-12-10--|
C|--------------------------------------------------|
G|-7-7-7---8/11-11-11---8/10-10-10---8-11-11-10--8--|
D|--------------------------------------------------|


Chorus x1
D|---------------------------------------|
A|---------------------------------------|
F|---------------------------------------|
C|-2-2-6--2-2-6--2-2-6---3-3-3-3-5-6--2--|
G|-2-2-6--2-2-6--2-2-6---3-3-3-3-5-6--2--|
D|-0-0-4--0-0-4--0-0-4---1-1-1-1-3-4--0--|


Bridge x4
D|-----------------------------|
A|-----------------------------|
F|-----------------------------|
C|-2--6/5-5/3--3-3/5--6/5-5/3--|
G|-2--6/5-5/3--3-3/5--6/5-5/3--|
D|-0--4/3-3/1--1-1/3--4/3-3/1--|


Verse x1
D|-----------------------------------|
A|-----------------------------------|
F|-------------10-10-10-10-10-10-10--|
C|-2---3---2---10-10-10-10-10-10-10--|
G|-2---3---2----8--8--8--8--8--8--8--|
D|-0---1---0-------------------------|


Breakdown x3
D|------------------------------------------------------|
A|------------------------------------------------------|
F|----9/7/9-7/10-----------------9/7/9-7/10-------------|
C|-2--9/7/9-7/10-----5--------2--9/7/9-7/10------3-5-3--|
G|-2--7/5/7-5/8--5h7---7-5----2--7/5/7-5/8--5h7--3-5-3--|
D|-0--------------------------0------------------1-3-1--|
Comments