Blackhawk - Every Once In A While Chords & Tabs

 

Every Once In A While Chords & Tabs

Blackhawk Chords & Tabs

Version: 1 Type: Tab 0 ratings
1 star 2 stars 3 stars 4 stars 5 stars
comments

Every Once In A While Tab

   
EVERY ONCE IN A WHILE
Blackhawk
(Paul/Stephenson/Robbins)
Album: Blackhawk
1994 Arista Records
Submitted by: Christopher R
August 11, 2003

1st Guitar Solo

    (E)       (Asus2)      (E)  (B)        (E)     (Asus2)

E--------------------------------------------------------------------|
B--------------------------------------------------------------------|
G---------------------------------------------------------------4----|
D----6--4--6--7--7/2---2h4---b6^r4------------------2--4--2/6--------|
A-----------------------------------------------2h4------------------|
E-----------------------------------b3(hold)r0-----------------------|

   (B)              (E)    (Asus2)       (E)         (B)
[ Tab from: http://www.guitartabs.cc/tabs/b/blackhawk/every_once_in_a_while_tab.html ]
E------------------------------------------7-------------------------|
B----5--5h7--7---7---9--7--9--10---5---b7----7--7p5--7----b7(hold)---|
G--6-----------------------------------------------------------------|
D--------------------------------------------------------------------|
A--------------------------------------------------------------------|
E--------------------------------------------------------------------|

  (Asus2)                 (B)

E----7---7---7---7---7-----------------------------------------------|
B--7---7---7---7---7---7---7--5--7--5h7~~~~~~~~~~~~~~(7)-------------|
G--------------------------------------------------------------------|
D--------------------------------------------------------------------|
A--------------------------------------------------------------------|
E--------------------------------------------------------------------|
Comments