Blackfoot - Train Train Chords & Tabs

 

Train Train Chords & Tabs

Blackfoot Chords & Tabs

Version: 1 Type: Tab 2 ratings
1 star 2 stars 3 stars 4 stars 5 stars
comments

Train Train Tab

   
Train, Train
		
Blackfoot
Strikes 
1979


This is my first attemp at tabing, I hope it's clear and easy to
understand.  I've sectioned off the intro, verses, and solo sections 
with solid lines in an attempt to make the piece a little easier to 
follow.  I've also added measure counts to help out.  If you have
any suggestions or comments email me at: albert4@student.wit.edu  

I've left out the solos and lead playing, maybe I'll tab it later..?
For now..here's my interpretation of the main guitar work.


______________________________________________________________________
Intro-(Twice)

 /Palm mute- - - - - - - - - - - - - - - - - - - - - - - - - - - -/
 +       +       +       +1/4     +       +       +       +1/4       
|--------------------------------|--------------------------------|
|--------------------------------|--------------------------------|
|--------------------------------|--------------------------------|
|2-------------- 2~~~~~----------|2-------------- 2~~~~~----------|
|2-------------x-----------------|2-------------x-----------------|
|---0--0--2--3-----------3^--2---|---0--0--2--3-----------3^--2---|
1				 2
	


 /Palm mute- - - - - - - - - - - - - - - - - - - - - - - - - - - -/
 +       +       +       +1/4     +       +       +       +       
|--------------------------------|--------------------------------|
|--------------------------------|----------------2---------------|
|--------------------------------|----------------2---------------|
|2-------------- 2~~~~~----------|2-------------- 2---------------|
|2-------------x-----------------|2-------------x-----------------|
|---0--0--2--3-----------3^--2---|---0--0--2--3-------------------|
3				 4


______________________________________________________________________
To make the tabing of the verse a little easier I'll call 
measures 1 & 2 from the intro above, riff 1 and measures 3&4, riff 2  


Verses 1 and 2

riff 1 (Twice)


 D				  A
|2-------------------------------|--------------------------------|
|3-------------------------------|2-------------------------------|
|2-------------------------------|2-------------------------------|
|0-------------------------------|2-------------------------------|
|--------------------------------|0-------------------------------|
|--------------------------------|--------------------------------|
9				 10


riff 1 (Once)

[ Tab from: http://www.guitartabs.cc/tabs/b/blackfoot/train_train_tab.html ]
 B				  D              A               
|--------------------------------|--------------------------------|
|4-------------------------------|7--------------5----------------|
|4-------------------------------|7--------------6----------------|
|4-------------------------------|7--------------7----------------|
|2-------------------------------|5--------------7----------------|
|--------------------------------|---------------5----------------|
13				 14


riff 2 (Once)
_______________________________________________________________________

Rhythm During 1st Solo


    A       +       +       +       
||  --------------------------------|--------------------------------|
||  2-----------2-------2-------x---|2-----------2-------2-------x---|
||* 2-----------2-------2-------x---|2-----------2-------2-------x---|
||* 2-----------2-------2-------x---|2-----------2-------2-------x---|
||  --------------------------------|--------------------------------|
||  --------------------------------|--------------------------------|
17                                  18


	   						 play 2 times
 /Palm mute- - - - - - - - - - - - - - - - - - - - - - - - - - - -/
 +       +       +       +1/4     +       +       +       +1/4       
|--------------------------------|-------------------------------- ||
|--------------------------------|-------------------------------- ||
|--------------------------------|--------------------------------*||
|2-------------- 2~~~~~----------|2-------------- 2~~~~~----------*||
|2-------------x-----------------|2-------------x----------------- ||
|---0--0--2--3-----------3^--2---|---0--0--2--3-----------3^--2--- ||	
19				 20


							 play 2 times
 D       +       +       +        +       +       +       +       
|2-------2---2---2---x---2---2---|-------------------------------- ||
|3-------3---3---3---x---3---3---|2-------2---2---2---x---2---2--- ||
|2-------2---2---2---x---2---2---|2-------2---2---2---x---2---2---*||
|0-------0-------0---x-----------|2-------2---2-------x---2---2---*||
|--------------------------------|-------------------------------- ||
|--------------------------------|-------------------------------- ||
25				 26



 /Palm mute- - - - - - - - - - - - - - - - - - - - - - - - - - - -/
 +       +       +       +1/4     +       +       +       +       
|--------------------------------|--------------------------------|
|--------------------------------|----------------2---------------|
|--------------------------------|----------------2---------------|
|2-------------- 2~~~~~----------|2-------------- 2---------------|
|2-------------x-----------------|2-------------x-----------------|
|---0--0--2--3-----------3^--2---|---0--0--2--3-------------------|
37				 38

________________________________________________________________________

Verse 3 - Same as Verses 1 and 2

________________________________________________________________________
 
Rhythm during 2nd solo - First eight measures 1st solo section

________________________________________________________________________

Comments