Blackend - Under Myself Chords & Tabs

 

Under Myself Chords & Tabs

Blackend Chords & Tabs

Version: 1 Type: Tab 0 ratings
1 star 2 stars 3 stars 4 stars 5 stars
comments

Under Myself Tab

Band: Blackend
Song: Under Myself
Tuning: Drop D down a half step
Effects: Flanger and wah

Intro: gtr 1(flanger)
-----------------------------------------------------------------------
-----------------------------------------------------------------------
-----------------------------------------------------------------------
-----------------------------------------------------------------------
-------------------------------333-------------------------------------
-0-222--0--0-222--0--0-222--0------------------------------------------

Intro: gtr 2(flanger)
-----------------------------------------------------------------------
-----------------------------------------------------------------------
-7-s-9-9-9-x--7-s-9-9-9-x--7-s-9-9-9-x---5-5-7-------------------------
-----------------------------------------------------------------------
-5-s-7-7-7-x--5-s-7-7-7-x--5-s-7-7-7-x---3-3-5-------------------------
-----------------------------------------------------------------------

Intro2: Both gtr's (distortion)
-----------------------------------------------------------------------
-----------------------------------------------------------------------
----------------------------------2-2-2--------------------------------
-0-----2-2---0-----2-2-------3-3--0-0-0--------------------------------
-0-h-2-2-2---0-h-2-2-2--2s3--3-3--0-0-0--------------------------------
-0-h-2-2-2---0-h-2-2-2--2s3--3-3---------------------------------------
[ Tab from: http://www.guitartabs.cc/tabs/b/blackend/under_myself_tab.html ]
Verse: Gtr 2 (lite distortion, flanger)
-----------------------------------------------------------------------
-----------------------------------------------------------------------
-----------------------------------------------------------------------
---------------------------2----------------7--------------------------
----------------------2-3----3-3p2------7-8---8-8p7--------------------
-0h2--2-2---0h2--2-2----------------7-8--------------------------------

Interlude: Both gtr (distortion)
-----------------------------------------------------------------------
-----------------------------------------------------------------------
---5-s-4--4---5-s-4--4----------------5-s-4--4---5-s-4--4--555-s-7777--
-----------------------------------------------------------------------
---3-s-2--2---3-s-2--2--0-0h2--2-2-0--3-s-2--2---3-s-2--2--333-s-5555--
--------------------------0h2--2-2-0-----------------------------------

Chorus: (distortion)
-----------------------------------------------------------------------
-----------------------------------------------------------------------
----------------------555-777------------------------------------------
------2-2--------2-2------------x4-------------------------------------
-3p2--2-2---3p2--2-2--333-555------------------------------------------
-3p2--2-2---3p2--2-2---------------------------------------------------

Bridge: (lite distortion and wah)
-----------------------------------------------------------------------
-----------------------------------------------------------------------
--------------------------------------4-4------------------------------
----------------------------x4-----------------------------------------
--3p2-2-2-------------------------3p2-2-2--2222-3333-5555--------------
-----------2222-3333-5555------------------2222-3333-5555--------------
Comments