Blackend - Silence Inside Chords & Tabs

 

Silence Inside Chords & Tabs

Blackend Chords & Tabs

Version: 1 Type: Tab 0 ratings
1 star 2 stars 3 stars 4 stars 5 stars
comments

Silence Inside Tab

Band: Blackend
Song: Silence Inside
Tuning: Drop D down a half step
Effects: wah, whammy, chorus

intro: (distortion)
-----------------------------------------------------------------------
-----------------------------------------------------------------------
-----------------------------------------------------------------------
-----------------------------------------------------------------------
--h5h6p5h6-t8p6p5h6----------------------------------------------------
-----------------------------------------------------------------------
[ Tab from: http://www.guitartabs.cc/tabs/b/blackend/silence_inside_tab.html ]
Chorus: (distortion)
-----------------------------------------------------------------------
-----------------------------------------------------------------------
-----------------------------------------------------------------------
-----1------------1----------8-----------------------------------------
--0--1p--0-----0--1p-0--x-s--8-----------------------------------------
--0--1p--0-----0--1p-0--x-s--8-----------------------------------------
play that four times through and one the second time use your whammy on
the top 2 stings open. the 4th time through hit harmonics on the bottom
2 strings but instead of picking slap them on about the 7th fret.

Verse: (chorus)
------12---12s13-13--------10---10-------13---13------------------------
------------------------------------------------------------------------
-8-8-----8------------6-6-----6----6-s-9----9---------------------------
------------------------------------------------------------------------
------------------------------------------------------------------------
------------------------------------------------------------------------

Bridge:(distortion)
----------------------|--------------------------------------------------
----------------------|--------------------------------------------------
-----9---10---12-12---|-7-7-s-8-8--8-s10-10---12--12---------------------
-0-0---0----0---------|---------------------------------w/ wah-----------
----------------------|-5-5-s-6-6--6-s-8--8---10--10---------------------
----------------------|--------------------------------------------------
Comments