Black Tie Affair - Infection Chords & Tabs

 

Infection Chords & Tabs

Black Tie Affair Chords & Tabs

Version: 1 Type: Bass Tab 0 ratings
1 star 2 stars 3 stars 4 stars 5 stars
comments

Infection Bass Tab

Intro/Verse:
G -------------------------------------------------------------
D -------------------------------------------------------------
A -------------------------------------------------------------
E -5-5--5-5-5-5-13-13--13-13-13-13-3-3--3-3-3-3-8-8-8-8-7-7-7-7
[ Tab from: http://www.guitartabs.cc/tabs/b/black_tie_affair/infection_btab.html ]
Chorus:
G -------------------------------------------------------
D -------------------------------------------------------
A -------------------------------------------------------
E -5-5--5-5-5-5-1-1--1-1-1-1-3-3--3-3-3-3-8-8-8-8-7-7-7-7

Bridge/Solo:
G ------------------------------------------------
D ------------------------------------------------
A -------------------------3--3--3-3-3------------
E -5--5--5-5-5-1--1--1-1-1-------------3--3--3-3-3

G ----------------------------------------------------
D ----------------------------------------------------
A -------------3--3--3-3-3----------------------------
E -5--5--5-5-5-------------3--3--3-3-3-8-8-8-8-7-7-7-7
Comments