Black Sabbath - Wheels Of Confusion Chords & Tabs

 

Wheels Of Confusion Chords & Tabs

Black Sabbath Chords & Tabs

Version: 6 Type: Tab 0 ratings
1 star 2 stars 3 stars 4 stars 5 stars
comments

Wheels Of Confusion Tab

   
INtro
e--------------------------------------|
B--------------------/8\---/8888888b9\-|
G-8b9----6-8-8b9\----------------------|
D--------------------------------------|
A--------------------------------------|
E--------------------------------------|

Main Riff
e-|----------------|----------------|
B-|5-----5-5-----5-|5-5-5-----------|
G-|5-----5-5-----5-|5-5-5-----------|
D-|5-----5-5-----5-|5-5-5-----------|
A-|3-----3-3-----3-|3-3-3-----------|
E-|----------------|------------3-6-|

At the end of each verse - Riff 2
e-|----------------|----------------|
B-|----------------|----------------|
G-|----------------|----------------|
D-|------------3---|----------------|
A-|3-----5-------5-|--5-------------|
E-|--6-3---6-3-----|6---6-3-6-3-6-3-|+ main riff (X2)

Riff 2 X 3 after verse 2 then - Riff 3
e-|----------------|----------------|
B-|----------------|----------------|
G-|----------------|----------------|
D-|----3-----3-----|----------------|
A-|--5-----5-------|----------------|
E-|6-----5-5---4---|4---------------|(X2)

Lead into solo
e-|----------------|----------------|
B-|----------------|----------------|
G-|----------------|----------------|
D-|----------------|----------------|
A-|----------------|----------1-----|
E-|3---3---3---3---|3---3-1-3---3-1-|

--------------------------------------------------------|
-10\8~/10~--8/10-10-10---10\8~/10~--8//10-10-10-10\(6)--|
--9\7~/-9~--7/-9--9--9----9\7~/-9~--7//-9--9--9--9\(5)--|
--------------------------------------------------------|
--------------------------------------------------------|
--------------------------------------------------------|

--------------------------------------------------------------|
-10p7----10p7----10p7---10~~---10p7-----10p7----10p7----10~~--|
-----7-9-----7-9----7-9------------7-99-----7-9-----7-9-------|
--------------------------------------------------------------|
--------------------------------------------------------------|
--------------------------------------------------------------|
(Guitar 1 & 2)

-------------------------------------------------------------------------|
-------------------------------------------------------------------------|
----4-7--7-7-2-------5-7--7-7-7/9\7---------5-7-7p5-7h9p7-7/10~~~~-------|
----4-7--7-7-2-------5-7--7-7-7/9\7---------5-7-7p5-7h9p7-7/10~~~~-------|
-5h7---------0---5h7--------------------5h7------------------------------|
-------------------------------------------------------------------------|
(Guitar 1)                                                {toggle your switch quickly}

-------------------------------------------------------------------------|
-----------------------------17~~~~~s\\9---------------------17~~~~~s\9--|
-------------------------------------------------------------------------|
-------------------------------------------------------------------------|
-------------------------------------------------------------------------|
-------------------------------------------------------------------------|
(Guitar 2)

------------|
------------|
-10-9-7\2---|
-10-9-7\2---|
--------0---|
------------|
(Guitar 1)
       {toggle your switch quickly}

----------------------|
----------17~~~~~s\9--|
----------------------|
----------------------|
----------------------|
----------------------|
(Guitar 2)

-----------------------------------------------------------------------|
-----------------------------------------------------------------------|
----4-7--7-7-2------5-7--7-7-7/9\7------------5-7-7p5-7h9p7-7/10~~~~---|
----4-7--7-7-2------5-7--7-7-7/9\7------------5-7-7p5-7h9p7-7/10~~~~---|
-5h7---------0--5h7-----------------------5h7--------------------------|
-----------------------------------------------------------------------|
(Guitar 1)                                                {toggle your switch quickly}

-----------------------------------------------------------------------------|
-------------17~~~~~s\9------------17~~~~~~s\9-------------------------------|
17~~~~~s\9-------------------------------------------------------------------|
-----------------------------------------------------------------------------|
-----------------------------------------------------------------------------|
-----------------------------------------------------------------------------|
(Guitar 2)

------------|
------------|
-10h12-2-2--|
-10h12-2-2--|
-------0-0--|
------------|
(Guitar 1)

----------------------|
----------17~~~~~s\9--|
----------------------|
----------------------|
----------------------|
----------------------|
(Guitar 2)

 A C E D  E\D E\D\C    A C E D  E\D E\D\C
---------------------------------------------|
---------------------------------------------|
---------------------------------------------|
-7--5-9-7--9\7-9\7\5---7--5-9-7--9\7-99\7\5--|
-7--3-7-5--7\5-7\5\3---7--3-7-5--7\5-77\5\3--|
-5---------------------5---------------------|

-----------------------------------------------------------------|
--(5)/10~~--8--10-----------------(5)//10~~--8--10---------------|
------------------9\7~~--5~-7-5------------------9\7~~--5~-7-5---|
-------------------------------7------------------------------7--|
-----------------------------------------------------------------|
-----------------------------------------------------------------|
(Guitar 1 & 2)
Lost in the wheels of confusion. Running through valleys of tears

-----------------------------------------------------------------|
--(5)/10~~--8--10-----------------(5)//10~~--8--10---------------|
------------------9\7~~--5~-7-5------------------9\7~~--5~-7-5---|
-------------------------------7------------------------------7--|
-----------------------------------------------------------------|
-----------------------------------------------------------------|
(Guitar 1 & 2)
Eyes full of angered illusion,  hiding in every day dream

Interlude

--------------------------------------------------------------------|
--------------------------------------------------------------------|
--------------------------------------------------------------------|
-------2p0--5p0--2p0---------------------2p0--5p0--2p0--------------|
-5p3p0----3----3----3--3-3p0-3p0--5p3pp0----3----3----3--3-3p0-3p0--|
--------------------------------------------------------------------|

----------------------------------|
----------------------------------|
----------------------------------|
-------2p0--5p0--2p0--------------|
-5p3p0----3----3----3--3-3p0-3p0--|
----------------------------------|

 C     B      F    C      B      F
------------------------------------|
------------------------------------|
-----5-----4-----------5------4-----|
---5-----4----3------5------4----3--|
-3-----2------1----3------2------1--|
------------------------------------|

 D  D D  D  D D  D D         D  D D  D  D D  D D
---------------------------------------------------|
---------------------------------------------------|
---------------------------------------------------|
-7--7-7--7--7-7--7-7---------7--7-7--77--7-7--7-7--|
-5--5-5--5--5-5--5-5------3--5--5-5--55--5-5--5-5--|
--------------------(3)/5--------------------------|

         D  D D  D  D D  D D         D  D D  D  D D  D D         D  D D  D  D D  D D
-----------------------------------------------------------------------------|
-----------------------------------------------------------------------------|
-----------------------------------------------------------------------------|
------7--7-7--7--7-7--7-7-----77--7-7--7--7-7--7-7-----7--7-7--7--7-7--7-7---|
------5--5-5--5--5-5--5-5-----55--5-5--5--5-5--5-5-----5--5-5--5--5-5--5-5---|
(3)/5--------------------(3)/5--------------------(3)/5----------------------|
     So I found that life is just a game,              but you know there's never been

          D  D D  D  D D  D D
-------------------------------|
-------------------------------|
-------------------------------|
----------7--7-7--7--7-7--7-7--|
-------3--5--5-5--5--5-5--5-5--|
-(3)/5-------------------------|
       A winner

         D  D D  D  D D  D D         D  D D  D  D D  D D         D  D D  D  D D  D D
-----------------------------------------------------------------------------|
-----------------------------------------------------------------------------|
-----------------------------------------------------------------------------|
-------7--7-7--7--7-7--7-7-----77--7-7--7--7-7--7-7-----7--7-7--7--7-7--7-7--|
----3--5--5-5--5--5-5--5-5-----55--5-5--5--5-5--5-5-----5--5-5--5--5-5--5-5--|
3)/5----------------------(3)/5---------------------3)/5---------------------|
Try your hardest, you still will be a loser.           The world will still be turning

          D  D D  D  D D  D D
-------------------------------|
-------------------------------|
-------------------------------|
----------7--7-7--7--7-7--7-7--|
-------3--5--5-5--5--5-5--5-5--|
-(3)/5-------------------------|
      when you're gone.  Yeah, when you're gone!

Interlude
                                  D  D D  D  D D  D D
----------------------------------------------------------------------------|
----------------------------------------------------------------------------|
----------------------------------------------------------------------------|
-------2p0--5p0--2p0--------------7--77-7--7--7-7--7-7----------------------|
-5p3p0----3----3----3--3-3p0-3p0--5--55-5--5--5-5--5-5----------------------|
----------------------------------------------------------------------------|

--------------------------------------------|
--------------------------------------------|
--------------------------------------------|
-------2p0-5p0--2p0-------------------------|
-5p3p0----3----3----3--3-3-3p0-3p0----------|
--------------------------------------------|

                                                                      D
-------------------------------------------------------------------------|
-------------------------------------------------------------------------|
-------------------------------------------------------------------------|
-------2p0--5p0--2p0------------------------2p0--5p0--2p0--------------7-|
-5p3p0----3----3----3----3-3p0-3p0--5pp3p0-----3----3----3--3-3p0-3p0--5-|
-------------------------------------------------------------------------|

----------------------|
---3--5--7--5--3-3h5--|
----------------------|
-5--5--5--5--5--5-----|
----------------------|
----------------------|
(Guitar 2)

 F G   G F G   G G
---------------------|
---------------------|
---------------------|
-3-5----5-3-5---5-5--|
-3-5----5-3-5---5-5--|
-1-3----3-1-3---3-3--|
(Guitar 1)

--------------------------------------------|
---3--5--7--5--3-3h5----3--5--7--5--3--3h5--|
--------------------------------------------|
-5--5--5--5--5--5-----5--5--5--5--5--55-----|
--------------------------------------------|
--------------------------------------------|
(Guitar 2 plus Bass and Keyboard)

 G\F  G F G    G G
--------------------|
--------------------|
--------------------|
-5\3---5-3-5---5-5--|
-5\3---5-3-5---5-5--|
-3\1---3-1-3---3-3--|

--------------------------------------------|
---2--3--5--5--5-3-2----3--5--7--5--3--3h5--|
--------------------------------------------|
-5--5--5--5--5--------5--5--5--5--5--55-----|
--------------------------------------------|
--------------------------------------------|
(Guitar 2 plus Bass and Keyboard)

 G  G G    G\F G   G G   (A)\F  F F   A G\F G   G G
------------------------------------------------------|
------------------------------------------------------|
------------------------------------------------------|
-5---5-5---5\3-5---5-5---(7)\3---3-3---7-5\3-5---5-5--|
-5---5-5---5\3-5---5-5---(7)\3---3-3---7-5\3-5---5-5--|
-3---3-3---3\1-3---3-3---(5)\1---1-1---5-3\1-3---3-3--|

--------------------------------------------|
---2--3--5--5--5-3-2----3--5--7--5--3--3h5--|
--------------------------------------------|
-5--5--5--5--5--------5--5--5--5--5--55-----|
--------------------------------------------|
--------------------------------------------|
(Guitar 2 plus Bass and Keyboard)

--------------------------------------------------------|
--------------------------------------------------------|
--------------------------------------------------------|
------------------3-------------------------3-----------|
-(3)/5-5--5~~---3---5-5-5~~--5-3---3-33~~--3--5---5-5---|
--------------------------------------------------------|
(Guitar 1 - slight delay on)

--------------------------------------------|
---2--3--5--5--5-3-2----3--5--7--5--3--3h5--|
--------------------------------------------|
-5--5--5--5--5--------5--5--5--5--5--55-----|
--------------------------------------------|
--------------------------------------------|
(Guitar 2 plus Bass and Keyboard)

-----------------------------------------------------------------------------|
-----------------------------------------------------------------------------|
------------------------------------------10------------10-------------------|
-(9)/12-12-12~~\(9)--10-12---12-122~~\(9)---10---10-10~~~-10--12-12-12^(13~--|
-----------------------------------------------------------------------------|
-----------------------------------------------------------------------------|
(Guitar 1 delay off)

--------------------------------------------|
---2--3--5--5--5-3-2----3--5--7--5--3--3h5--|
--------------------------------------------|
-5--5--5--5--5--------5--5--5--5--5--55-----|
--------------------------------------------|
--------------------------------------------|
(Guitar 2 plus Bass and Keyboard)

-----15--15-15---18p15--18p15--15------13-------15--15-15-------13--|
-18^(20--20-20~)------18-----18---16^((18)--18^(20--20-20)--16^(18)-|
--------------------------------------------------------------------|
--------------------------------------------------------------------|
--------------------------------------------------------------------|
--------------------------------------------------------------------|
(Guitar 1 & 2)

--------------------------------------------|
---2--3--5--5--5-3-2----3--5--7--5--3--3h5--|
--------------------------------------------|
-5--5--5--5--5--------5--5--5--5--5--55-----|
--------------------------------------------|
--------------------------------------------|
(Guitar 3 plus Bass and Keyboard)

----13--13-13-------13------13-------15--15-15--18p15--18p15-18p15-18p15-15-|
16^(18--18-18~)-16^(18)-16^(18)-18^((20--20-20)------18-----18----18---18---|
----------------------------------------------------------------------------|
----------------------------------------------------------------------------|
----------------------------------------------------------------------------|
----------------------------------------------------------------------------|
(Guitar 1 & 2)

--------------------------------------------|
---2--3--5--5--5-3-2----3--5--7--5--3--3h5--|
--------------------------------------------|
-5--5--5--5--5--------5--5--5--5--5--55-----|
--------------------------------------------|
--------------------------------------------|
(Guitar 3 plus Bass and Keyboard)

-----15--15-15---18p15--18p15--15------13-------15--15-15-----15-\----(12)--|
-18^(20--20-20~)------18-----18---16^((18)--18^(20--20-20)18^(20)\(15^(17))-|
----------------------------------------------------------------------------|
----------------------------------------------------------------------------|
----------------------------------------------------------------------------|
----------------------------------------------------------------------------|
(Guitar 1 & 2)

--------------------------------------------|
---2--3--5--5--5-3-2----3--5--7--5--3--3h5--|
--------------------------------------------|
-5--5--5--5--5--------5--5--5--5--5--55-----|
--------------------------------------------|
--------------------------------------------|
(Guitar 3 plus Bass and Keyboard)

-----13--13-13-------13------13--------15--15-15-------|
-16^(18--18-18~)-16^(18)-16^(18)--18^((20--20-20s`18)--|
-------------------------------------------------------|
-------------------------------------------------------|
-------------------------------------------------------|
-------------------------------------------------------|
(Guitar 1 & 2)
[ Tab from: http://www.guitartabs.cc/tabs/b/black_sabbath/wheels_of_confusion_tab_ver_6.html ]
--------------------------------------------|
---2--3--5--5--5-3-2----3--5--7--5--3--3h5--|
--------------------------------------------|
-5--5--5--5--5--------5--5--5--5--5--55-----|
--------------------------------------------|
--------------------------------------------|
(Guitar 3 plus Bass and Keyboard)
Black Sabbath - Wheels of Confusion/The Straightner, Part 2

From Black Sabbath's "Volume 4" Album, Released September, 1972

Tuning Info:  C#, Adagio 72 beats/min. 4/4 count

NOTE:  Lyrics may not match written music or may be incorrect.
       Multiple guitar parts may not align due to space constraints.

LEAD (6:40)
-----15-18p15----------------------------------------------------------------|
18^20--------18p15--18p15----------------------------------------------------|
------------------17-----17-17p15--177p15------------------------------------|
---------------------------------17------17-17p15--17p15--17p15--------------|
-------------------------------------------------17-----17----17p15h17p15\13-|
-----------------------------------------------------------------------------|
(Guitar 1 with slight delay)

--------------------------------------------|
---2--3--5--5--5-3-2----3--5--7--5--3--3h5--|
--------------------------------------------|
-5--5--5--5--5--------5--5--5--5--5--55-----|
--------------------------------------------|
--------------------------------------------|
(Guitar 2 plus Bass and Keyboard)

----------------------------------------------------------15-(15h18p15-------|tr~)
-----------------------------20~\18-200~\18-18-20~\18-20~~-------------------|
-----------------------------------------------------------------------------|
-----------------------------------------------------------------------------|
-13h15p13h15p13--13~-15-13---------------------------------------------------|
---------------15------------------------------------------------------------|
(Guitar 1 with slight delay)

--------------------------------------------|
---2--3--5--5--5-3-2----3--5--7--5--3--3h5--|
--------------------------------------------|
-5--5--5--5--5--------5--5--5--5--5--55-----|
--------------------------------------------|
--------------------------------------------|
(Guitar 2 plus Bass and Keyboard)

-15h18p15--15h18p15--15h18p15--15-(15hh18p15 tr~~~)-15h18p15---15h18p15-----|
---------18--------18--------18-----------------------------18---------18---|
----------------------------------------------------------------------------|
----------------------------------------------------------------------------|
----------------------------------------------------------------------------|
----------------------------------------------------------------------------|
(Guitar 1 with slight delay)

--------------------------------------------|
---2--3--5--5--5-3-2----3--5--7--5--3--3h5--|
--------------------------------------------|
-5--5--5--5--5--------5--5--5--5--5--55-----|
--------------------------------------------|
--------------------------------------------|
(Guitar 2 plus Bass and Keyboard)

------15-18p15-------------------------------------------------------------|
-18^20--------18p15--18p15-------------------------------------------------|
-------------------17-----17-(17p15 trr~~)---------------------------------|
------------------------------------------(15h17p15 tr~~)------------------|
---------------------------------------------------------(15h17p15 tr~~)---|
---------------------------------------------------------------------------|
(Guitar 1 with slight delay)

--------------------------------------------|
---2--3--5--5--5-3-2----3--5--7--5--3--3h5--|
--------------------------------------------|
-5--5--5--5--5--------5--5--5--5--5--55-----|
--------------------------------------------|
--------------------------------------------|
(Guitar 2 plus Bass and Keyboard)

-----------------------------------------------------------18-20-18h20p18---|
--------15--------------------------------15h18-15h18/20-20--------------20-|
--------15--------------------15h17-155h17----------------------------------|
-17p15----(15h17p15 tr~~)---17----------------------------------------------|
------17------------------17------------------------------------------------|
----------------------------------------------------------------------------|
(Guitar 1 with slight delay)

--------------------------------------------|
---2--3--5--5--5-3-2----3--5--7--5--3--3h5--|
--------------------------------------------|
-5--5--5--5--5--------5--5--5--5--5--55-----|
--------------------------------------------|
--------------------------------------------|
(Guitar 2 plus Bass and Keyboard)

18-20-18-18h20p18--18-20-18-18h20p18--18-20-18-18h20p18--18-20-18-18h20p18---|
-----------------20-----------------20-----------------20-----------------20-|
-----------------------------------------------------------------------------|
-----------------------------------------------------------------------------|
-----------------------------------------------------------------------------|
-----------------------------------------------------------------------------|
(Guitar 1 with slight delay)

--------------------------------------------|
---2--3--5--5--5-3-2----3--5--7--5--3--3h5--|
--------------------------------------------|
-5--5--5--5--5--------5--5--5--5--5--55-----|
--------------------------------------------|
--------------------------------------------|
(Guitar 2 plus Bass and Keyboard)

18-20/21-18h20p18--1820/21-18h20p18--18-20/21-18h20p18-----------------------|
-----------------20-----------------20----------------20-18^(20s`18)18^20s18-|
-------------------------------------------------------------17--------------|
-----------------------------------------------------------------------------|
-----------------------------------------------------------------------------|
-----------------------------------------------------------------------------|
(Guitar 1 with slight delay)

--------------------------------------------|
---2--3--5--5--5-3-2----3--5--7--5--3--3h5--|
--------------------------------------------|
-5--5--5--5--5--------5--5--5--5--5--55-----|
--------------------------------------------|
--------------------------------------------|
(Guitar 2 plus Bass and Keyboard)

------15-18p15--18p15-------------------------------------------------------|
-15h18--------18-----18-18p15--15h18p115--15h18p15--------------------------|
-----------------------------17---------17--------17-15-15h17p15--15h17p15--|
----------------------------------------------------------------17-------17-|
----------------------------------------------------------------------------|
----------------------------------------------------------------------------|
(Guitar 1 with slight delay)

--------------------------------------------|
---2--3--5--5--5-3-2----3--5--7--5--3--3h5--|
--------------------------------------------|
-5--5--5--5--5--------5--5--5--5--5--55-----|
--------------------------------------------|
--------------------------------------------|
(Guitar 2 plus Bass and Keyboard)

----------------------------------------------------------------------------|
----------------------------------------------------------------------------|
------15-17-17^(19s`17)-17^(19s`17)-177^(19s`17)-17^(19s`17)-(15h17p15 tr~)-|
-15h1--------------------------------------------------------------------17-|
----------------------------------------------------------------------------|
----------------------------------------------------------------------------|
(Guitar 1 with slight delay)
               7:06

--------------------------------------------|
---2--3--5--5--5-3-2----3--5--7--5--3--3h5--|
--------------------------------------------|
-5--5--5--5--5--------5--5--5--5--5--55-----|
--------------------------------------------|
--------------------------------------------|
(Guitar 2 plus Bass and Keyboard)

----------------------------------------------------------------------------|
----------------------------------------------------------------------------|
-(15h17p15 tr~)--17^(19s`17)-17^(19s`117)-17^(19s`17)--(15h17p15 tr~)-15~~--|
---------------17-----------------------------------------------------------|
----------------------------------------------------------------------------|
----------------------------------------------------------------------------|
(Guitar 1 with slight delay)

--------------------------------------------|
---2--3--5--5--5-3-2----3--5--7--5--3--3h5--|
--------------------------------------------|
-5--5--5--5--5--------5--5--5--5--5--55-----|
--------------------------------------------|
--------------------------------------------|
(Guitar 2 plus Bass and Keyboard)

-------15-15h18p15--15h18p15--15h18p155--15h18p15--15h18p15------------------|
--18^20-----------18--------18---------18--------18--------18-15-(15h18p15~--|
-----------------------------------------------------------------------------|
-----------------------------------------------------------------------------|
-----------------------------------------------------------------------------|
-----------------------------------------------------------------------------|
(Guitar 1 with slight delay)

--------------------------------------------|
---2--3--5--5--5-3-2----3--5--7--5--3--3h5--|
--------------------------------------------|
-5--5--5--5--5--------5--5--5--5--5--55-----|
--------------------------------------------|
--------------------------------------------|
(Guitar 2 plus Bass and Keyboard)

---------------------------------------------20-----------------------------|
-18^(20~s`18)-18^(20~s`18)-18^(20s`18))-18^20--18p15--18p15-----------------|
----------------------------------------------------17-----17p15--17p15-----|
----------------------------------------------------------------17----17p15-|
----------------------------------------------------------------------------|
----------------------------------------------------------------------------|
(Guitar 1 with slight delay)

--------------------------------------------|
---2--3--5--5--5-3-2----3--5--7--5--3--3h5--|
--------------------------------------------|
-5--5--5--5--5--------5--5--5--5--5--55-----|
--------------------------------------------|
--------------------------------------------|
(Guitar 2 plus Bass and Keyboard)

---------------------------------------------------------18p15--18p15--18p15-|
--------15-----------------------15hh18p15h18-18^20-18^20-----18-----18------|
-----15--17p15-17p15--17p15--15h17-------------------------------------------|
17p15-------------17-----17--------------------------------------------------|
-----------------------------------------------------------------------------|
-----------------------------------------------------------------------------|
(Guitar 1 with slight delay)

--------------------------------------------|
---2--3--5--5--5-3-2----3--5--7--5--3--3h5--|
--------------------------------------------|
-5--5--5--5--5--------5--5--5--5--5--55-----|
--------------------------------------------|
--------------------------------------------|
(Guitar 2 plus Bass and Keyboard)

---18p15--18p15--18p15-18p15--18p15--118p15-------------------------------|
-18-----18-----18-----------18-----18------18p15h18p15--18p15h18p15-------|
------------------------------------------------------17-----------17-----|
--------------------------------------------------------------------------|
--------------------------------------------------------------------------|
--------------------------------------------------------------------------|
(Guitar 1 with slight delay)             {7:27 Begin Coda}

--------------------------------------------|
---2--3--5--5--5-3-2----3--5--7--5--3--3h5--|
--------------------------------------------|
-5--5--5--5--5--------5--5--5--5--5--55-----|
--------------------------------------------|
--------------------------------------------|
(Guitar 2 plus Bass and Keyboard)

----------------------------------------------------------------------------|
-15 (18p15h18 tr~~~~~~~~~)15(18pp15h18 tr~~~~~~~~~)18^20-18p15-18p15-18p15--|
------------------------17-17---------------------17-17------------------17-|
----------------------------------------------------------------------------|
----------------------------------------------------------------------------|
----------------------------------------------------------------------------|
(Guitar 1 with slight delay)

--------------------------------------------|
---2--3--5--5--5-3-2----3--5--7--5--3--3h5--|
--------------------------------------------|
-5--5--5--5--5--------5--5--5--5--5--55-----|
--------------------------------------------|
--------------------------------------------|
(Guitar 2 plus Bass and Keyboard)

-----------------------------------------------------------------------------|
--------15----------------------------15------------------------------15h18--|
-17p15----17p15-17p15-------15-17p15----17p15h17p15h17p15--------15h17-------|
-17-17p15-15h17p15h17-------17-------------------17p15h17--------------------|
-----------------------------------------------------------------------------|
-----------------------------------------------------------------------------|
(Guitar 1 with slight delay)

--------------------------------------------|
---2--3--5--5--5-3-2----3--5--7--5--3--3h5--|
--------------------------------------------|
-5--5--5--5--5--------5--5--5--5--5--55-----|
--------------------------------------------|
--------------------------------------------|
(Guitar 2 plus Bass and Keyboard)

----15-(18p15h18 tr~~~~~)-15-18^(20)-118-20/21-18h20p18--18-20/21-18h20p18---|
-15---------------------------------------------------20------------------20-|
-----------------------------------------------------------------------------|
-----------------------------------------------------------------------------|
-----------------------------------------------------------------------------|
-----------------------------------------------------------------------------|
(Guitar 1 with slight delay)

--------------------------------------------|
---2--3--5--5--5-3-2----3--5--7--5--3--3h5--|
--------------------------------------------|
-5--5--5--5--5--------5--5--5--5--5--55-----|
--------------------------------------------|
--------------------------------------------|
(Guitar 2 plus Bass and Keyboard)

-18-20/21-18h20p18---(18h21p18 tr~~~~~)-----------------20----------15-------|
------------------20-------------------(18h20p18 tr~~~~)----------15--18p15--|
-------------------------------------------------------------17^(19)---------|
-----------------------------------------------------------------------------|
-----------------------------------------------------------------------------|
-----------------------------------------------------------------------------|
(Guitar 1 with slight delay)

--------------------------------------------|
---2--3--5--5--5-3-2----3--5--7--5--3--3h5--|
--------------------------------------------|
-5--5--5--5--5--------5--5--5--5--5--55-----|
--------------------------------------------|
--------------------------------------------|
(Guitar 2 plus Bass and Keyboard)

-------------------------------------------------------------------------15--|
-18^(20)-18p15-18p15---------------------------------------------------------|
---------17p15-17p15-17p15---15-17p15--17p15--17p15--17p15--15-17^(19)-------|
-----------------------------17--------17-----17-----17-----17---------------|
-----------------------------------------------------------------------------|
-----------------------------------------------------------------------------|
(Guitar 1 with slight delay)

--------------------------------------------|
---2--3--5--5--5-3-2----3--5--7--5--3--3h5--|
--------------------------------------------|
-5--5--5--5--5--------5--5--5--5--5--55-----|
--------------------------------------------|
--------------------------------------------|
(Guitar 2 plus Bass and Keyboard)

----15------15------15----15--18p15--18p15--15-18p15---15-18p15---15-18p15---|
----17^(19)-17^(19)-17^(19)------18-----18--------18---------18---------18---|
----17^(19)------------------------------------------------------------------|
-----------------------------------------------------------------------------|
-----------------------------------------------------------------------------|
-----------------------------------------------------------------------------|
(Guitar 1 with slight delay)

--------------------------------------------|
---2--3--5--5--5-3-2----3--5--7--5--3--3h5--|
--------------------------------------------|
-5--5--5--5--5--------5--5--5--5--5--55-----|
--------------------------------------------|
--------------------------------------------|
(Guitar 2 plus Bass and Keyboard)

--------15-15--15----15------15------115------15------15------15-----15----|
-18^(20)-----18--18^(20)-18^(20)-18^(220)-18^(20)-18^(20)-18^(20)-18(20)---|
---------------------------------------------------------------------------|
---------------------------------------------------------------------------|
---------------------------------------------------------------------------|
---------------------------------------------------------------------------|
(Guitar 1 with slight delay)                                       7:59

--------------------------------------------|
---2--3--5--5--5-3-2----3--5--7--5--3--3h5--|
--------------------------------------------|
-5--5--5--5--5--------5--5--5--5--5--55-----|
--------------------------------------------|
--------------------------------------------|

problems email at unourrit015@comcast.net
Comments