Black Sabbath - Wheels Of Confusion Chords & Tabs

 

Wheels Of Confusion Chords & Tabs

Black Sabbath Chords & Tabs

Version: 5 Type: Tab 0 ratings
1 star 2 stars 3 stars 4 stars 5 stars
comments

Wheels Of Confusion Tab

   
Wheels of Confusion

Lead intro X2(need help here)
e--------------------------------------|
B--------------------/8\---/8888888b9\-|
G-8b9----6-8-8b9\----------------------|
D--------------------------------------|
A--------------------------------------|
E--------------------------------------|

The main riff is a C Chord over 2 bars
e-|----------------|----------------|
B-|5-----5-5-----5-|5-5-5-----------|
G-|5-----5-5-----5-|5-5-5-----------|
D-|5-----5-5-----5-|5-5-5-----------|
A-|3-----3-3-----3-|3-3-3-----------|
E-|----------------|------------3-6-|(X2) per verse line
	Long ago I wandered through my mind
	In the land of fairytales and stories
	Lost in happiness I knew no fears
	Innocence and love was all I knew - Was an illusion

	Soon the days were passing into years
	Happiness just didn't come so easy
	Life was bored of fairytales and daydreams
	Innocence was just another word - Was an illusion

At the end of each verse - Riff 2
e-|----------------|----------------|
B-|----------------|----------------|
G-|----------------|----------------|
D-|------------3---|----------------|
A-|3-----5-------5-|--5-------------|
E-|--6-3---6-3-----|6---6-3-6-3-6-3-|+ main riff (X2)

Riff 2 X 3 after verse 2 then - Riff 3
e-|----------------|----------------|
B-|----------------|----------------|
G-|----------------|----------------|
D-|----3-----3-----|----------------|
A-|--5-----5-------|----------------|
E-|6-----5-5---4---|4---------------|(X2)

Faster tempo shuffle leading into a solo break

e-|----------------|----------------|
B-|----------------|----------------|
G-|----------------|----------------|
D-|----------------|----------------|
A-|----------------|----------1-----|
E-|3---3---3---3---|3---3-1-3---3-1-|

Solo - need help

Just before "Lost in the Wheels...
 G           Bb       D   C           Db  C       Db  C   Bb
|----------------|---------------|---------------|---------------|
|----------------|---------------|---------------|---------------|
|----------------|----7---5------|----6---5------|6---5---3------|
|5-----------8---|----7---5------|----6---5------|6---5---3------|
|5-----------8---|----5---3------|----4---3------|4---3---1------|
|3-----------6---|---------------|---------------|---------------|
(X2)
Then over Gm maybe Gm7

Lost in the Wheels of Confusion
Running through valleys of tears
Eyes full of angry delusion
Hiding in every day fears

Riff 2 & Main Riff & Riff 3

Main Riff
So I found that life is just a game
Hurts you now, there's never been a winner
Try your hardest, you'll still be a loser
The world will still be turning when you've gone

Riff 2 x 3 then
e-|----------------|
B-|-5--------------|
G-|-5--------------|
D-|-5--------------|
A-|-3--------------|
E-|----------------|

The Straightener
[ Tab from: http://www.guitartabs.cc/tabs/b/black_sabbath/wheels_of_confusion_tab_ver_5.html ]
Acoustic bit all the way to the end
e---|----------------|--------------|
B---|----------------|--------------|
G---|----------2-----|4----2--------|
D---|-----5----------|----------5---|
A---|----------------|--------------|
E---|----------------|--------------|

Over the acoustic bit
     Em
e---|-----------------|-----------------|
B-7-|-----------------|-----------------|
G-7-|9----------------|-----------------|
D-7-|9----------------|-------------5---|
A-5-|7----------------|--------5----5-5-|
E---|7----------------|--------5------5-|

e---|-----------------|----------------|
B---|-----------------|----------------|
G---|4-----4-0--------|------------0---|
D---|2-----2-2--------|------------2---|
A---|2-----2-2--------|------------2---|
E---|0-----0-0--------|------------0---|

e---|----------------|----------------|
B---|----------------|----------------|
G---|----------------|----------------|
D---|4---------------|4-------5---5---|
A---|0---------------|0-------5---5---|
E---|----------------|--------5---5---|

e---|----------------|----------------|
B---|----------------|----------------|
G---|0---------------|----------------|
D---|2---------------|----------------|
A---|2---------------|----------------|
E---|0---------------|----------------|

e---|----------------|----------------|----------------|
B---|----------------|----------------|----------------|
G---|----------------|----------------|----------------|
D---|9-----9-9-------|--------9---7---|9-----9-9-----9-|
A---|7-----7-7-------|--------7---5---|7-----7-7-----7-|
E---|----------------|----------------|----------------|

e---|----------------|----------------|----------------|
B---|----------------|----------------|----------------|
G---|----------------|----------------|----------------|
D---|7-----7-7-------|--------9---7---|9-----9-9-------|
A---|5-----5-5-------|--------7---5---|7-----7-7-------|
E---|----------------|----------------|----------------|

e---|----------------|----------------|----------------|
B---|----------------|----------------|----------------|
G---|9-----9-9-------|--------9---7---|9-----9-9-----9-|
D---|----------------|----------------|----------------|
A---|----------------|----------------|----------------|
E---|----------------|----------------|----------------|

e---|----------------|----------------|----------------|
B---|----------------|----------------|----------------|
G---|7-----7-7-------|--------9---7---|9-----9-9-------|
D---|----------------|----------------|----------------|
A---|----------------|----------------|----------------|
E---|----------------|----------------|----------------|

e---|12----12-12-----|----15p12-----15p12----|
B---|----------------|----------15--------15-|

e---|12----12-12-----|-----------------12---|
B---|----------------|----------------------|

e---|----------------|----------------------|
B---|15----15-15-----|------------15---15---|

e---|12----12-12-----|----15p12-----15p12----|
B---|----------------|----------15--------15-|

repeat X 2 then solo around these notes and fade
*****
Comments