Black Sabbath - Wasp Chords & Tabs

 

Wasp Chords & Tabs

Black Sabbath Chords & Tabs

Version: 1 Type: Tab 0 ratings
1 star 2 stars 3 stars 4 stars 5 stars
comments

Wasp Tab

   
Tuning: Standard

-----------------------------------------------------|
-----------------------------------------------------|
----------8----8-----------7----7--------------------|
----------9----9-----------7----7--------------------|
----------9----9-----------7----7--------------------|
-----7---------------7-------------------------------|

-----------------------------------------------------|
-----------------------------------------------------|
----------8----8-----------7----7--------------------|
----------9----9-----------7----7--------------------|
----------9----9-----------7----7--------------------|
-----7---------------7-------------------------------|

-----------------------------------------------------|
-----------------------------------------------------|
----------8----8-----------7----7--------------------|
----------9----9-----------7----7--------------------|
----------9----9-----------7----7--------------------|
-----7---------------7-------------------------------|

-----------------------------------------------------|
-----------------------------------------------------|
----------8----8-----------7----7--------------------|
----------9----9-----------7----7--------------------|
----------9----9-----------7----7--------------------|
-----7---------------7-------------------------------|

-----------------------------------------------------|
-----------------------------------------------------|
-----------7--7-7p6----------------------------------|
--9---9-------------9-7---7--------------------------|
--9---9-----------------9----------------------------|
--7---7----------------------------------------------|

-----------------------------------------------------|
-----------------------------------------------------|
-----------------------------------------------------|
--9---9----------7-----------------------------------|
--9---9-----7/9-----9/7p5---5------------------------|
--7---7-------------------7--------------------------|

-----------------------------------------------------|
-----------------------------------------------------|
-----------7--7-7p6----------------------------------|
--9---9-------------9-7---7--------------------------|
--9---9-----------------9----------------------------|
--7---7----------------------------------------------|

-----------------------------------------------------|
-----------------------------------------------------|
-----------------------------------------------------|
--9---9----------7-----------------------------------|
--9---9-----7/9-----9/7p5---5------------------------|
--7---7-------------------7--------------------------|

-----------------------------------------------------|
-----------------------------------------------------|
----------8----8-----------7----7--------------------|
----------9----9-----------7----7--------------------|
----------9----9-----------7----7--------------------|
-----7---------------7-------------------------------|

-----------------------------------------------------|
-----------------------------------------------------|
----------8----8-----------7----7--------------------|
----------9----9-----------7----7--------------------|
----------9----9-----------7----7--------------------|
-----7---------------7-------------------------------|

-----------------------------------------------------|
-----------------------------------------------------|
----------8----8-----------7----7--------------------|
----------9----9-----------7----7--------------------|
----------9----9-----------7----7--------------------|
-----7---------------7-------------------------------|

-----------------------------------------------------|
-----------------------------------------------------|
----------8----8-----------7----7--------------------|
----------9----9-----------7----7--------------------|
----------9----9-----------7----7--------------------|
-----7---------------7-------------------------------|

-----------------------------------------------------|
-----------------------------------------------------|
-----------------------------------------------------|
----9------------------------------------------------|
----9------------------------------------------------|
----7------------------------------------------------|

------------------------|
------------------------|
------------------------|
----------5h7p5-5h7-----|
------------------------|
----5--8----------------|
[ Tab from: http://www.guitartabs.cc/tabs/b/black_sabbath/wasp_tab.html ]
------------------------|
------------------------|
------------------------|
----------5h7p5---------|
----------------5h7-----|
----5--8----------------|

------------------------|
------------------------|
------------------------|
----------5h7p5-5h7-----|
------------------------|
----5--8----------------|

------------------------|
------------------------|
------------------------|
----------5h7p5---------|
----------------5h7-----|
----5--8----------------|

------------------------|
------------------------|
------------------------|
------------------------|
---5--5---5h6p5---------|
--------8-------8-5-----|

------------------------|
------------------------|
---------------7~~~-----|
--7/9-------------------|
--7/9-------------------|
--5/7-------------------|

---------------7--------|
--------------10b-------|
------------------------|
--7/9-------------------|
--7/9-------------------|
--5/7-------------------|

Solo

------------------------------------------------|
-------10b-10b-10b-7----------------7/\---------|
---------------------9p7------------------------|
-------------------------9p7h9------------------|
------------------------------------------------|
------------------------------------------------|

------------------------------------------------|
----10-12b-12b-12b-10p7-------------------------|that's pretty much it
------------------------9p7---------------------|just keep repeating this
----------------------------9p7-----------------|penatonic
--------------------------------9p7-------------|
------------------------------------------------|

------------------------------------------------|
------------------------------------------------|
------------------------------------------------|
----6h7p6h7p6h7p6h7p6h7p6-----------------------|
--------------------------9--9--9--9~~~~~-------|
------------------------------------------------|

--------------------------------------------------|
-----------------------7--------------------------|
--------------------------------------------------|
---------6h7p6h7p6h7------7h9---------------------|
--------------------------------------------------|
--------------------------------------------------|

-----------------------------------------------------|
-----------------------------------------------------|
----------8----8-----------7----7--------------------|
----------9----9-----------7----7--------------------|
----------9----9-----------7----7--------------------|
-----7---------------7-------------------------------|

-----------------------------------------------------|
-----------------------------------------------------|
----------8----8-----------7----7--------------------|
----------9----9-----------7----7--------------------|
----------9----9-----------7----7--------------------|
-----7---------------7-------------------------------|

-----------------------------------------------------|
-----------------------------------------------------|
----------8----8-----------7----7--------------------|
----------9----9-----------7----7--------------------|
----------9----9-----------7----7--------------------|
-----7---------------7-------------------------------|

-----------------------------------------------------|
-----------------------------------------------------|
----------8----8-----------7----7--------------------|
----------9----9-----------7----7--------------------|
----------9----9-----------7----7--------------------|
-----7---------------7-------------------------------|

------------------------|
------------------------|
------------------------|
----------5h7p5-5h7-----|
------------------------|
----5--8----------------|

------------------------|
------------------------|
------------------------|
----------5h7p5---------|
----------------5h7-----|
----5--8----------------|


------------------------|
------------------------|
------------------------|
----------5h7p5-5h7-----|
------------------------|
----5--8----------------|

------------------------|
------------------------|
------------------------|
----------5h7p5---------|
----------------5h7-----|
----5--8----------------|

------------------------|
------------------------|
------------------------|
------------------------|
---5--5---5h6p5---------|
--------8-------8-5-----|

------------------------|
------------------------|
------------------------|
------------------------|
---5--5---5h6p5---------|
--------8-------8-5-----|

------------------------|
------------------------|
------------------------|
------------------------|
---5--5---5h6p5---------|
--------8-------8-5-----|

Notaion used:
h-hammer on
p-pull off
~-vibrato
b-bend
/-slide up
\-slide down
Comments