Black Sabbath - Tomorrows Dream Chords & Tabs

 

Tomorrows Dream Chords & Tabs

Black Sabbath Chords & Tabs

Version: 3 Type: Tab 0 ratings
1 star 2 stars 3 stars 4 stars 5 stars
comments

Tomorrows Dream Tab

Black Sabbath
Tomorrows Dream
Black Sabbath Vol. 4

The solo is easier than it looks I just didn’t really do the timing

Intro
e|---------------------------------|
B|---------------------------------|
G|--------------------------55-----|
D|-----5--7-77-5-7-55-7\---/55-----|
A|--7--3--5-55-3-5-33-5\---/33-----|
E|--5------------------------------|

Verses
e---------------------------------|
B---------------------------------|
G--7-7-7-7-7-7-7--7-7\----5-5-----|
D--7-7-7-7-7-7-7--7-5\----5-5-5-5-|
A--5-5-5-5-5-5-5--5-5\----3-3-5-5-|
E-----------------------------3-3-|

Chorus
e-----------------------------------|
B-----------------------------------|
G-------5---5---5-5-----------------|
D-7--5--5---5---5-5-----------------| X2
A-7--5--3---3---3-3-----------------|
E-5--3--------------6p5p3-6p5p3-5p3-|
  ^  ^
first time


after second verse play intro 4times
then
[ Tab from: http://www.guitartabs.cc/tabs/b/black_sabbath/tomorrows_dream_tab_ver_3.html ]
e---------0-----0---|------3-----3---|
B-------1---1-----1-|----4---4-----4-|
G-----0-------0-----|--3-------3-----|
D-------------------|----------------|
A---3---------------|3---------------|
E-------------------|----------------|
                       Bar  3rd fret

Chorus before solo
SOLO
e|------------------------------------------------------------------------|
B|------------------------------------------------------5^----------------|
G|------------------------------------------------5-7^-----5h7p5----------|
D|-------3—3---------3-3-----------3-3---------/7----------------7p5------|
A|---3h5-----5---3h5-----5-----3h5-----5---3h5-----------------------8p5--|
E|------------------------------------------------------------------------|

e|----------------------------------------------------|
B|----------------------------------------------------|
G|----------------------5-----------------------------|
D|-----3-3-----------/7---7p5—--7p5-----------3-3-----|
A|-3h5-----5---3h5------------8-----8p5---3h5------5--|
E|----------------------------------------------------|


Thanks to alex from ver. 1 I borrowed some of his stuff
Comments