Black Sabbath - The Warning Chords & Tabs

 

The Warning Chords & Tabs

Black Sabbath Chords & Tabs

Version: 3 Type: Bass Tab 0 ratings
1 star 2 stars 3 stars 4 stars 5 stars
comments

The Warning Bass Tab

Black Sabbath-the Warning

from the album The Original Black
Sabbath Symptom of the
Universe 1970-1978

Intro
)----------------------------------------------------------------(
)------------------------------------------------------------3-5-(
)-0-0-3-0-0----0-0-3-0-0----0-3-333-333-33-33-5-555-555-55-5-----(
)-----------3------------3---------------------------------------(

Main Riff
)---------------(
)---------------( Play this a 
)-0-0-3-0-3-3-0-( few times then:
)---------------(

)-------------------------------------(
)-------------------------------------(
)-0-0-3-0-3-3-0-5-3-----0-0-3-0-3-3-0-(
)-------------------5-3---------------(

)-------------------------------------(
)-0-0-3-0-3-3-0-5-3-----0-0-3-0-3-3-0-(
)-------------------5-3---------------(
)-------------------------------------(

)-------------------------------------(
)-------------------------------------(
)-0-0-3-0-3-3-0-5-3-----0-0-3-0-3-3-0-(
)-------------------5-3---------------(

)-------------------------------------(
)---------------------------------3-5-(
)0-3-333-333-33-33-5-555-555-55-5-----(
)-------------------------------------(

Then eventually bass stops for a guitar solo. 
But for the beginning play 2nd fret on lowest string.
Listen and youíll know what I mean.
At 4:41 start again with this cool jam.

)-------------------------(
)-----5-----5-----5-7-5---( Play this
)-5h7---5h7---5h7-------7-( three times.
)-------------------------(

)--------------------------------(
)-------------5--------5-7-9-7-5-(
)-7-7-5---5-7------7-7-----------(
)-------7------------------------(

)-------------------------------(
)-----7-7-----7-7-----7-7-------(
)-5-5-----5-5-----5-5-----------(
)-------------------------5-7-5-(

)--------------------------------(
)-----5-7-9-7-5------5-7-7---7---(
)-7-7--------------7-------5---5-(
)--------------------------------(
[ Tab from: http://www.guitartabs.cc/tabs/b/black_sabbath/the_warning_btab_ver_3.html ]
)---------------------------------------------(
)-------------5-----------7777777777777777777-(
)-7-7-5---5-7-----5-5-7-7---------------------(
)-------7-------------------------------------(

)--------------------------------(
)-----5-7-9-7-5----------------5-(
)-7-7--------------7-7-5---5-7---(
)------------------------7-------(

)----------------------(
)-----5-7-9-7-5--------( Pause now for 
)-7-7---------------7~-( some guitar riffs.
)----------------------(




At 5:42 come back again for even more jamming.

)-----------------(
)---7-7-5-7-5-7-5-( Iím not sure 
)-5---------------( about this part.
)-----------------(

)---------------------------------(
)-----5-7-9-7-5-------5-7-7---7---(
)-7-7---------------7-------5---5-(
)---------------------------------(

)---------------------------------(
)-----5-7-9-7-5-----------------5-(
)-7-7---------------7-7-5---5-7---(
)-------------------------7-------(

)---------------------------------(
)---7-5-5---7-----------5-7-9-7-5-(
)-5-------5---5-5ó--7-7-----------(
)---------------------------------(

)---------------------------------(
)-----5-7-9-7-5-----------------5-(
)-7-7---------------7-7-5---5-7---(
)-------------------------7-------(

)---------------------------------(
)-----5-7-9-7-5-------------------(
)-7-7---------------7-7-5---5-7---(
)-------------------------7-----7-(

)---------------------------------(
)-----5-7-9-7-5-----------------5-(
)-7-7---------------7-7-5---5-7---(
)-------------------------7-------(

)---------------(
)-----5-7-9-7-5-( 6:07
)-7-7-----------(
)---------------(

Here the bass stops for
Some crazy guitar solos.
Start once again at 9:10 with this:

             /  fast \
)----------------------(
)------------------7---( Play this
)------------5-7-5---5-( three times.
)-7-7-5-5-7------------(

)----------------------------------------------------(
)----------------------------------------------------( Play this
)-5-5-5-----7-5---7-5--------3-3-3-----7-5---7-5-----( two times.
)-------5-7-----7-----7-5----------5-7-----7-----7-5-(

Back to Main Riff. No bass in the ending.
Comments