Black Sabbath - Symptom Of The Universe Chords & Tabs

 

Symptom Of The Universe Chords & Tabs

Black Sabbath Chords & Tabs

Version: 4 Type: Tab 0 ratings
1 star 2 stars 3 stars 4 stars 5 stars
comments

Symptom Of The Universe Tab

Black Sabbath - Symptom Of The Universe
Submitted By: Rodrigo
EMail: el_bueno_@hotmail.com

Tune 1 1/2 Down

Intro:
-------------------------------------------------------------------------------
-------------------------------------------------------------------------------
-------------------------------------------------------------------------------
----------------6--6-------------7-44--4--------------6--6--------------7-6--6-
-5-5-5-5-5-5-5--4--4-5-5-5-5-5---5-22--2--5-5-5-5-5---4--4--5-5-5-5-5---5-4--4-
-3-3-3-3-3-3-3-------3-3-3-3-3------------3-3-3-3-3---------3-3-3-3-3----------
 
------------------------------------------------------------------------------
------------------------------------------------------------------------------
------------------------------------------------------------------------------
----------------6--6-------------7-44--4-------------6--6--------------7-6--6-
-5-5-5-5-5-5-5--4--4-5-5-5-5-5---5-22--2--5-5-5-5-5--4--4--5-5-5-5-5---5-4--4-
-3-3-3-3-3-3-3-------3-3-3-3-3------------3-3-3-3-3--------3-3-3-3-3----------
 
----------------------------------
----------------------------------
----------------------------------
-10----6----5------10----6----5---
--8----4----3-------8----4----3---
----------------------------------

 Take me through the centuries to super sonic years
 Electrifying enemy is drowning in his tears
 All I have to give you is a love that never dies,
 The symptom of the universe is written in your eyes!

----------------------------------
----------------------------------
----------------------------------
-10----6----5------10----6----5---
--8----4----3-------8----4----3---
----------------------------------
 Yeaaaaaaaaah!     Yeaaaaaaaaaaaahh!

Mother Moon she's calling me back to her silver womb,
Father of Creation takes me from my stolen tomb.
Seven hundred unicorn is waiting in the skies,
A symptom of the universe, a love that never dies!

----------------------------------
----------------------------------
----------------------------------
-10----6----5------10----6----5---
--8----4----3-------8----4----3---
----------------------------------
 Yeaaaaaaaaah!     Yeaaaaaaaaaaaahh!

BRIDGE (1:58)
---------------------------------------------------------------------------------
---------------------------------------------------------------------------------
---------------------------------------------------------------------------------
--7-8-5-7--5---------5\(3)--7-8-5-7--5----------5\(3)--7-8-5-7--5---------5\(3)--
---------8---8p5-7h8-3\(1)---------8----8p5-7h8-3\(1)---------8---8p5-7h8-3\(1)--
---------------------------------------------------------------------------------

---------------------------------------------------------------------------------
---------------------------------------------------------------------------------
---------------------------------------------------------------------------------
--7-8-5-7--5---------5\(3)--7-8-5-7--5----------5\(3)--7-8-5-7--5---------5\(3)--
---------8---8p5-7h8-3\(1)---------8----8p5-7h8-3\(1)---------8---8p5-7h8-3\(1)--
---------------------------------------------------------------------------------

-------------------------------------------------------
-------------------------------------------------------
-------------------------------------------------------
--7-8-5-7--5---------5\(3)--7-8-5-7--5----------5\(3)--
---------8---8p5-7h8-3\(1)---------8----8p5-7h8-3\(1)--
-------------------------------------------------------

----------------------------------
----------------------------------
----------------------------------
-10----6----5------10----6----5---
--8----4----3-------8----4----3---
----------------------------------
[ Tab from: http://www.guitartabs.cc/tabs/b/black_sabbath/symptom_of_the_universe_tab_ver_4.html ]
Take my hand, my child of love, Come step inside my tears,
Swim the magic ocean I've been crying all these years.
With our love qwe'll ride away into eternal skies,
A symptom of the universe, a love that never dies!

----------------------------------
----------------------------------
----------------------------------
-10----6----5------10----6----5---
--8----4----3-------8----4----3---
----------------------------------
 Yeaaaaaaaaah!     Yeaaaaaaaaaaaahh!

BRIDGE (3:13)
---------------------------------------------------------------------------------
---------------------------------------------------------------------------------
---------------------------------------------------------------------------------
--7-8-5-7--5---------5\(3)--7-8-5-7--5----------5\(3)--7-8-5-7--5---------5\(3)--
---------8---8p5-7h8-3\(1)---------8----8p5-7h8-3\(1)---------8---8p5-7h8-3\(1)--
---------------------------------------------------------------------------------
                     Psssst                    Pssst

---------------------------------------------------------------------------------
---------------------------------------------------------------------------------
---------------------------------------------------------------------------------
--7-8-5-7--5---------5\(3)--7-8-5-7--5----------5\(3)--7-8-5-7--5---------5\(3)--
---------8---8p5-7h8-3\(1)---------8----8p5-7h8-3\(1)---------8---8p5-7h8-3\(1)--
---------------------------------------------------------------------------------

-------------------------------------------------------
-------------------------------------------------------
-------------------------------------------------------
--7-8-5-7--5---------5\(3)--7-8-5-7--5----------5\(3)--
---------8---8p5-7h8-3\(1)---------8----8p5-7h8-3\(1)--
-------------------------------------------------------

LEAD (3:35)
----------------------------
----------------------------
----------------------------
----------------------------
-5-5-5-5-5-5-5-5-5--5--5-5--
----------------------------

----------------------------------------------------------------
--------------------------------------------------------7h9p7---
-----------------------------------------------5h7p5h7p5--------
------------------------------------5h77p5h7p5------------------
-5-5-5-5-5-5-5-5-5--5--5-5-5h7p5h7p5----------------------------
----------------------------------------------------------------

----------------------------------------------------------------
--------------------------------------------------------7h9p7---
-----------------------------------------------5h7p5h7p5--------
------------------------------------5h77p5h7p5------------------
-5-5-5-5-5-5-5-5-5--5--5-5-5h7p5h7p5----------------------------
----------------------------------------------------------------

----------------------------------------------------------------
--------------------------------------------------------7h9p7---
-----------------------------------------------5h7p5h7p5--------
------------------------------------5h77p5h7p5------------------
-5-5-5-5-5-5-5-5-5--5--5-5-5h7p5h7p5----------------------------
----------------------------------------------------------------

----------------------------------------------------------------
--------------------------------------------------------7h9p7---
-----------------------------------------------5h7p5h7p5--------
------------------------------------5h77p5h7p5------------------
-5-5-5-5-5-5-5-5-5--5--5-5-5h7p5h7p5----------------------------
----------------------------------------------------------------

----------------------------
----------------------------
----------------------------
----------------------------
-5-5-5-5-5-5-5-5-5--5--5-5--
----------------------------
Comments