Black Sabbath - Supertzar Chords & Tabs

 

Supertzar Chords & Tabs

Black Sabbath Chords & Tabs

Version: 2 Type: Tab 0 ratings
1 star 2 stars 3 stars 4 stars 5 stars
comments

Supertzar Tab

6----0-0-0-0-0--------------------------------0-0-0-0-0------------
5---------------10-9-10-9--7--10-9-7-9-10---------------4-3-2------
4-----------------------------------------10-9----------------4-3-2
3------------------------------------------------------------------
2------------------------------------------------------------------
1------------------------------------------------------------------

6------------------------------------------------------------------
5------------------------------------------------------------------
4------------------------------------------------------------------
3----4-3-2---------------------------------------------------------
2----------4-3-2---------------------------------------------------
[ Tab from: http://www.guitartabs.cc/tabs/b/black_sabbath/supertzar_tab_ver_2.html ]
Comments