Black Sabbath - Supernaut Chords & Tabs

 

Supernaut Chords & Tabs

Black Sabbath Chords & Tabs

Version: 3 Type: Tab 0 ratings
1 star 2 stars 3 stars 4 stars 5 stars
comments

Supernaut Tab

##-----------------------------PLEASE NOTE-------------------------------##
          This file is the author's own work and represents 
          their interpretation of the song. You may only use 
         this file for private study, scholarship, or research. 
##-----------------------------------------------------------------------##

Tabbed by Charles Benagh (CCBenagh@hotmail.com)

Artist: Black Sabbath
Title: Supernaut
Album: Black Sabbath, Vol. 4

Equipment: Gibson SG ---> Dallas Rangemaster Treble Boost ---> Laney Stack

Legend:  p - pull off
         h - hammer on
         ^ - bend note
         ~ - vibrato
    / or \ - slide up or down
      t(#) - trill



*Iommi tuned down to Db for this song, but this tab is written in E

Riff 1
e-|----------------------------------------------------------------------|
B-|*---------------------------------------------------------------------|
G-|----------------------------------------------------------------------|
D-|----------------------------------------------------------------------|
A-|*--/4---4-4p2-----2---4---4~------/4---4---4p2-----2~-----------------|
E-|--------------2--------------------------------2------------------2---|

e-|----------------------------------------------------------------------|
B-|---------------------------------------------------------------------*|
G-|----------------------------------------------------------------------|
D-|--------------------------/4~-----4p2------4---4---4p2----------------|
A-|---/4---4-4p2-----2---4----------------2----------------2------------*|
E-|--------------2-------------------------------------------------------|

Riff 2
e-|-----------------------------------------|
B-|*---------------------------------------*|
G-|---6\------4-----4--4--4----4--4--6\-----|
D-|---6\------4-----4--2--4----4--2--6\-----|
A-|*--4\------2-----2--2--2----2--2--4\----*|
E-|-----------------------------------------|

Solo
e-|----------------------------------------------------------------------|
B-|--(14)---(14)----------14t(17)--14t(17)--14t(17)--14t(17)---14t(17)---|
G-|---16^18--16^18--------------(16)-----(16)-----(16)-----(16)----------|
D-|----------------------------------------------------------------------|
A-|----------------------------------------------------------------------|
E-|----------------------------------------------------------------------|

e-|----------------------------------------------------------------------|
B-|---14t(17)--14t(17)--14t(17)--14t(17)----18^20---17---14h17p14-----14-|
G-|----------------------------------------------------------------16----|
D-|----------------------------------------------------------------------|
A-|----------------------------------------------------------------------|
E-|----------------------------------------------------------------------|
[ Tab from: http://www.guitartabs.cc/tabs/b/black_sabbath/supernaut_tab_ver_3.html ]
e-|----------------------------------------------------------------------|
B-|--14--------/12--9--12--9t(12)----------------------------------------|
G-|--16^18\0----------------------9t(11)--9t(11)--9t(11)--9t(11)--11^13\0|
D-|----------------------------------------------------------------------|
A-|----------------------------------------------------------------------|
E-|----------------------------------------------------------------------|

e-|----------------------------------------------------------------------|
B-|----------------------------------------------------------------------|
G-|--/11--11--11--9h11p9-------------------------------------------------|
D-|----------------------11--11p9-----9t(11)--9t(11)--9t(11)--9t(11)-----|
A-|-------------------------------11-------------------------------------|
E-|----------------------------------------------------------------------|

e-|------------------------------------------------9---------9-----9-----|
B-|--------------------------------------------------12--14--12^14-12^14-|
G-|-----------------------------------9--11--11^13-----------------------|
D-|----------------------------9--11-------------------------------------|
A-|--9h11--9--7------7--9--11--------------------------------------------|
E-|--------------9-------------------------------------------------------|

e-|--9t(12)--------------------------------------------------------------|
B-|---------9t(12)-------------------------------------------------------|
G-|----------------9t(11)-----------------9t(11)--9t(11)--9t(11)--9t(11)-|
D-|-----------------------9t(11)--9t(11)---------------------------------|
A-|----------------------------------------------------------------------|
E-|----------------------------------------------------------------------|

e-|----------------------------------------------------------------------|
B-|--9^12--9^12--9^12--9^12--9^12---13-16-11-13-16-11-13-16-11-13-16-11--|
G-|----------------------------------------------------------------------|
D-|----------------------------------------------------------------------|
A-|----------------------------------------------------------------------|
E-|----------------------------------------------------------------------|

e-|-----------------------------------------12^14--14--9h12p9------9-----|
B-|--12^14----12---9-------------------11---------------------12---12^14-|
G-|--------------------11p9------11^13-----------------------------------|
D-|-------------------------11-------------------------------------------|
A-|----------------------------------------------------------------------|
E-|----------------------------------------------------------------------|

e-|----------------------------------------------------------------------|
B-|--12---9--------------------------------------------------------------|
G-|-----------11--9------------------------------------------------------|
D-|-----------------11---11\---------------------------------------------|
A-|----------------------------------------------------------------------|
E-|----------------------------------------------------------------------|

Song Structure:
Riff 1   x2
Riff 2   x8
Riff 1   x2
Riff 2   x6
Riff 1   x1
Solo
Riff 1   x2
Percussion Solo
Riff 2   x8
Riff 1 - until fade out

*This is all my own work
Comments