Black Sabbath - Spiral Architect Chords & Tabs

 

Spiral Architect Chords & Tabs

Black Sabbath Chords & Tabs

Version: 1 Type: Tab 0 ratings
1 star 2 stars 3 stars 4 stars 5 stars
comments

Spiral Architect Tab

   
Artist: Black Sabbath
Song: Spiral Architect
  


Special Tuning

e -> c#/db
B -> G#/Ab
G -> e
D -> B
A -> F#/Gb
e -> c#/db



This is the intro (Let all the notes ring).  Play each bar 4 times.
At least this part is right.

|----0---|----0---|----8---|--------------|
|---6-6--|---8-8--|---6-6--|----0-----0---|
|--7---7-|--9---9-|--7---7-|---6-6---4-4--|
|-0------|-0------|-0------|--7---7-5---5-|
|--------|--------|--------|-0-----0------|
|--------|--------|--------|--------------|

Opening Riff
[ Tab from: http://www.guitartabs.cc/tabs/b/black_sabbath/spiral_architect_tab.html ]
|-------------------|-----------------|
|-------------------|-----------------|
|-------------------|-----------------|
|---7-7-7-7-7-7-7-7-|-7-7-7-7-7-7-7---|
|-7-5-5-5-5-5-5-5-5-|-5-5-5-5-5-5-5-7-|
|-5-----------------|---------------5-|

|-------------|
|-------------|
|---7---------|
|-7-7---------|
|-7-5---------|
|-5-----------|


Cool Part
|-----------------|------------------------|
|-----------------|------------------------|
|-----------------|------------------------|
|-----0-----------|-------------------0----|
|-0-----3-0-3-2-0-|-2-0---0-----2-3--0-----|
|-----------------|-----3---3-0-----3------|

Verse

|-------------------|-------------|
|-------------------|-------------|
|-7---7-------------|--------7----|
|-7---7-----7-7-----|-10--9--7----|
|-5---5-----7-7-----|-10--9--5----|
|-----------5-5-----|--8--7-------|

Chorus

|-------------|
|-------------|
|-7--7--7--7--|
|-7--7--7--7--|
|-5--5--5--5--|
|-------------|

Email Me AT Soakitup02@aol.com for any questions or comments.
Comments