Black Sabbath - Snowblind Chords & Tabs

 

Snowblind Chords & Tabs

Black Sabbath Chords & Tabs

Version: 6 Type: Tab 0 ratings
1 star 2 stars 3 stars 4 stars 5 stars
comments

Snowblind Tab

   
-------------------------------------------------------------------------------
			     'SNOWBLIND' - Black Sabbath
-------------------------------------------------------------------------------
Tabbed by:SabBloodySab1
Email: warpiggs2000@yahoo.com

This is the song in its Entirity. I even included all of the outro solo. Enjoy! This
Tab is Correct.. If there is any problems, just email me.

Tuned Down One and a Half Steps (C# F# B E G# C#)

'Intro'  2 Times                  *******************************************
e|--------------------------------------------0----------------2--2----------|
B|-----------------------------------------1-----1-----------3------3--------|
G|--------------------------------------0----------0-------2----------2------|
D|---9----11---12\-----9\------------2---------------0--0---------------0----|
A|---7----9----10\-----7\-----0---3------------------------------------------|
E|---------------------------------------------------------------------------|
                        
0:17  'Main Riff'   Repeat 6 Times
e|---------------------------------------------------------------------------|
B|---------------------------------------------------------------------------|
G|--------------------------------------0------------------------------------|
D|--9---9-------9-------9\7---7----------------------------------------------|
A|--7---7---0---7---0---7\5---5---5/7----------------------------------------|
E|---------------------------------------------------------------------------|

Lick after Main Riff
e|------------------------------------------------------0--------------------|
B|-----------------------------------------1---------3-----------------------|
G|---------------------------------------0--------2--------------------------|
D|------------------------------------2--------0-----------------------------|
A|---5h-7----5---4-------------0---3-----------------------------------------|
E|------0-----------5---6\---------------------------------------------------|

e|---------------------------------------------------------------------------|
B|-----------------------------------------1---------3-----------------------|
G|---------------------------------------0--------2--------------------------|
D|------------------------------------2--------0-----------------------------|
A|---5h-7----5---4-------------0---3-----------------------------------------|
E|------0-----------5----6\--------------------------------------------------|
Main Riff Again   6 Times
e|---------------------------------------------------------------------------|
B|---------------------------------------------------------------------------|
G|-------------------------------------------0-------------------------------|
D|---9----9---------9--------9\7---7-----------------------------------------|
A|---7----7----0----7----0---7\5---5---5\7-----------------------------------|
E|---------------------------------------------------------------------------|
Lick After Main Riff 
e|--------------------------------------------------0------------------------|
B|---------------------------------------1--------3--------------------------|
G|-------------------------------------0--------2----------------------------|
D|----------------------------------2--------0-------------------------------|
A|---5h-7----5---4-----------0---3-------------------------------------------|
E|------0-----------5---6\---------------------------------------------------|

e|---------------------------------------------------------------------------|
B|--------------------------------------1---------3--------------------------|
G|------------------------------------0---------2----------------------------|
D|---------------------------------2----------0------------------------------|
A|---5h-7----5---4----------0---3--------------------------------------------|
E|------0-----------5---6\---------------------------------------------------|
Intro Lick  2 Times              ******************************************
e|--------------------------------------------0----------------2--2----------|
B|-----------------------------------------1-----1-----------3------3--------|
G|--------------------------------------0----------0-------2----------2------|
D|---9----11---12\-----9\------------2---------------0--0---------------0----|
A|---7----9----10\-----7\-----0---3------------------------------------------|
E|---------------------------------------------------------------------------|
Chord Progression   Play about 5 Times 
  *****************************************************
e|----------0------------------------0-----------0---------------------------|
B|--------0---0--------0-----0-----0--0--------0--0--------------------------|
G|------0------0-----0-----0-----0-----0-----0-----0-------------------------|
D|----9---------9--7-----6-----5--------5--4--------0------------------------|
A|--7------------5-----4-----3-----------2-----------------------------------|
E|---------------------------------------------------------------------------|
2:21 'Solo'                                         
e|---------------------------------------------------------------------------|
B|-12H-15---15b(Full)--15b(Full)--15b(Full)--15b(Full)v----------------------|
D|---------------------------------------------------------------------------|
A|---------------------------------------------------------------------------|
E|---------------------------------------------------------------------------|

e|---12----------------------------------------------------------------------|
B|-------15----12------------------------------------------------------------|
G|------------------15---14----12--------------------------0---2-------------|
D|----------------------------------14/7----5v------0---2--------------------|
A|---------------------------------------------------------------------------|
E|---------------------------------------------------------------------------|

e|---------------------------------------------------------------------------|
B|---------------------------------------------------------------------------|
G|---2b(Full)----2b(Full)-----2b(Full)----0----2P-0--------------------------|
D|-----------------------------------------------------2v--------------------|
A|---------------------------------------------------------------------------|
E|---------------------------------------------------------------------------|

e|---------------------------------------------------------------------------|
B|---------------------------------------------------------------------------|
G|----------0----------0------------------0----2------2b(Full)----2b(Full)---|
D|---0h-2-------2--2--------2--2v---0h-2-------------------------------------|
A|---------------------------------------------------------------------------|
E|---------------------------------------------------------------------------|

e|---------------------------------------------------------------------------|
B|---------------------------------------------------------------------------|
G|--0------2b(Full)--0----2P-0---------------0-------0-----------------------|
D|-------------------------------2v----0h-2-----2--2----2--2v----0---2-------|
A|---------------------------------------------------------------------------|
E|---------------------------------------------------------------------------|

e|---------------------------------------------------------------------------|
B|-------------------------------------------15b(Full)---15b(Full)-----------|
G|---0---2----2b(Full)----2b(Full)---0---------------------------------------|
D|---------------------------------------------------------------------------|
A|---------------------------------------------------------------------------|
E|---------------------------------------------------------------------------|

e|---------------------------12-------------------------15b(Full)----15------|
B|----15b(Full)--15b(Full)v------15---12-------------------------------------|
G|----------------------------------------15--14--12-------------------------|
D|---------------------------------------------------------------------------|
A|---------------------------------------------------------------------------|
E|---------------------------------------------------------------------------|

e|--12------------------12---------------------------------------------------|
B|----------15b(Full)-------15---12------------------------------------------|
G|------------------------------------15--14--12-----------------------------|
D|------------------------------------------------14\------------------------|
A|---------------------------------------------------------------------------|
E|---------------------------------------------------------------------------|
'Main Riff' Again   6 Times
e|---------------------------------------------------------------------------|
B|---------------------------------------------------------------------------|
G|-------------------------------------------0-------------------------------|
D|---9----9---------9--------9\7---7-----------------------------------------|
A|---7----7----0----7----0---7\5---5---5\7-----------------------------------|
E|---------------------------------------------------------------------------|

Lick After Main Riff 
e|--------------------------------------------------0------------------------|
B|---------------------------------------1--------3--------------------------|
G|-------------------------------------0--------2----------------------------|
D|----------------------------------2--------0-------------------------------|
A|---5h-7----5---4-----------0---3-------------------------------------------|
E|------0-----------5---6\---------------------------------------------------|

e|---------------------------------------------------------------------------|
B|--------------------------------------1---------3--------------------------|
G|------------------------------------0---------2----------------------------|
D|---------------------------------2----------0------------------------------|
A|---5h-7----5---4----------0---3--------------------------------------------|
E|------0-----------5---6\---------------------------------------------------|
3:27  "Afro-Cuban Lick"  Repeat 2 Times
e|---------------------------------------------------------------------------|
B|---------------------------------------------------------------------------|
G|---------------------------------------------------------------------------|
D|---------------------------------------------------------------------------|
A|---7---7---10h-7---10h-7---7---10h-7---10h-7---7---10h-7----7--------------|
E|---------------------------------------------------------------------------|

e|---------------------------------------------------------------------------|
B|---------------------------------------------------------------------------|
G|---------------------------------------------------------------------------|
D|---7--7----7---------------------------------------------------------------|
A|---5--5----7---------------------------------------------------------------|
E|---------------------------------------------------------------------------|
[ Tab from: http://www.guitartabs.cc/tabs/b/black_sabbath/snowblind_tab_ver_6.html ]
e|---------------------------------------------------------------------------|
B|---------------------------------------------------------------------------|
G|---------------------------------------------------------------------------|
D|---------------------------------------------------------------------------|
A|---7---7---10h-7---10h-7---7---10h-7---10h-7---7---10h-7----7--------------|
E|---------------------------------------------------------------------------|

e|---------------------------------------------------------------------------|
B|---------------------------------------------------------------------------|
G|---7--7----7---------------------------------------------------------------|
D|---7--7----7---------------------------------------------------------------|
A|---5--5----5---------------------------------------------------------------|
E|---------------------------------------------------------------------------|

Lick After Main Riff 
e|--------------------------------------------------0------------------------|
B|---------------------------------------1--------3--------------------------|
G|-------------------------------------0--------2----------------------------|
D|----------------------------------2--------0-------------------------------|
A|---5h-7----5---4-----------0---3-------------------------------------------|
E|------0-----------5---6\---------------------------------------------------|

e|---------------------------------------------------------------------------|
B|--------------------------------------1---------3--------------------------|
G|------------------------------------0---------2----------------------------|
D|---------------------------------2----------0------------------------------|
A|---5h-7----5---4----------0---3--------------------------------------------|
E|------0-----------5---6\---------------------------------------------------|

Main Riff Again   6 Times
e|---------------------------------------------------------------------------|
B|---------------------------------------------------------------------------|
G|-------------------------------------------0-------------------------------|
D|---9----9---------9--------9\7---7-----------------------------------------|
A|---7----7----0----7----0---7\5---5---5\7-----------------------------------|
E|---------------------------------------------------------------------------|

'Outro Solo'  GTR. 1   Note: GTR. 2 Plays main riff during Outro Solo

e|---------------------------------------------------------------------------|
B|---15b(Full)--15b(Full)--15b(Full)--15b(Full)(15)--15b(Full)(15)-----------|
G|---------------------------------------------------------------------------|
D|---------------------------------------------------------------------------|
A|---------------------------------------------------------------------------|
E|---------------------------------------------------------------------------|

e|-----------------------------------12t[15]---------------------------------|
B|---15b(Full)(15)--15b(Full)(15)--------------------------------------------|
G|---------------------------------------------------------------------------|
D|---------------------------------------------------------------------------|
A|---------------------------------------------------------------------------|
E|---------------------------------------------------------------------------|

e|---------------------------------------------------------------------------|
B|---15b(Full)--15b(Full)--15b(Full)--15b(Full)(15)--15b(Full)(15)-----------|
G|---------------------------------------------------------------------------|
D|---------------------------------------------------------------------------|
A|---------------------------------------------------------------------------|
E|---------------------------------------------------------------------------|

e|-----------------------------------12t[15]---------------------------------|
B|---15b(Full)(15)--15b(Full)(15)--------------------------------------------|
G|---------------------------------------------------------------------------|
D|---------------------------------------------------------------------------|
A|---------------------------------------------------------------------------|
E|---------------------------------------------------------------------------|

e|---------------------------------------------------------12----------------|
B|--/12---12---12---12---12---12---12v\---------/12---15---------------------|
G|--/9----9----9----9----9----9-----9v\---------/9----12---------------------|
D|---------------------------------------------------------------------------|
A|---------------------------------------------------------------------------|
E|---------------------------------------------------------------------------|

e|-----------------------------------------------------12----12--------------|
B|----15b(Full)--15b(Full)--15b(Full)--15b(Full)------------------15----12---|
G|---------------------------------------------------------------------------|
D|---------------------------------------------------------------------------|
A|---------------------------------------------------------------------------|
E|---------------------------------------------------------------------------|

e|---------------------------------------------------------------------------|
B|---------------------------------------------------------------------------|
G|---14---14----12h-14P-12----------14b(Half)--14---12---------14-----12-----|
D|---------------------------14v------------------------14v------------------|
A|---------------------------------------------------------------------------|
E|---------------------------------------------------------------------------|

e|-------------------------------------------------12------------------------|
B|---------------------------------12----15---15---------15---12-------------|
G|---------14-----12--------/14-----------------------------------15--14-12--|
D|---14v---------------14----------------------------------------------------|
A|---------------------------------------------------------------------------|
E|---------------------------------------------------------------------------|

e|--------12-------12--------------------------------------------------------|
B|--/12---12---12--12---12---------------------------------------------------|
G|--/12--------12-------12---------------------------------------------------|
D|---------------------------------------------------------------------------|
A|---------------------------------------------------------------------------|
E|---------------------------------------------------------------------------|

Repeat this little lick 3 Times

e|-------9h10-------9h10--------9h10------9h10-------9h10------9h10-----------|
B|--12---------12----------12---------12--------12--------12-----------------|
G|---------------------------------------------------------------------------|
D|---------------------------------------------------------------------------|
A|---------------------------------------------------------------------------|
E|---------------------------------------------------------------------------|

This Next part of the solo is a bit tricky. It is a series of Trills, in which
you will have to listen to the song to get the right amount of time you trill.

e|------------15---------------12------------12------------12----------------|
B|--12t[15]----------12t[15]-------12t[15]--------12t[15]---------12t[15]----|
G|---------------------------------------------------------------------------|
D|---------------------------------------------------------------------------|
A|---------------------------------------------------------------------------|
E|---------------------------------------------------------------------------|

e|-----12t[15]------------------12t[15]---------------------------12t[15]----|
B|----------------12t[15]------------------12h15------12t[15]----------------|
G|---------------------------------------------------------------------------|
D|---------------------------------------------------------------------------|
A|---------------------------------------------------------------------------|
E|---------------------------------------------------------------------------|

e|--------------------------15b(Full)----15-------12h15p12--------15---15----|
B|---12h15-----12t[15]---------------------------------------15--------------|
G|---------------------------------------------------------------------------|
D|---------------------------------------------------------------------------|
A|---------------------------------------------------------------------------|
E|---------------------------------------------------------------------------|

e|---------------------------------------------------------------------------|
B|---15b(Full)--15---15b(Full)--15---15b(Full)--15---------------------------|
G|---------------------------------------------------------------------------|
D|---------------------------------------------------------------------------|
A|---------------------------------------------------------------------------|
E|---------------------------------------------------------------------------|

e|---------------------------------------------------------------------------|
B|--15b(Full)--15b(Full)--15b(Full)--15b(Full)--15b(Full)--15b(Full)---------|
G|---------------------------------------------------------------------------|
D|---------------------------------------------------------------------------|
A|---------------------------------------------------------------------------|
E|---------------------------------------------------------------------------|

e|---------------------------------------------------------------------------|
B|-15b(Full)--15b(Full)--15b(Full)--15b(Full)--15b(Full)--15b(Full)----------|
G|---------------------------------------------------------------------------|
D|---------------------------------------------------------------------------|
A|---------------------------------------------------------------------------|
E|---------------------------------------------------------------------------|

e|---------------/12b(One Fourth)--12b(One Fourth)--12b(One Fourth)----------|
B|--15b(Full)----------------------------------------------------------------|
G|---------------------------------------------------------------------------|
D|---------------------------------------------------------------------------|
A|---------------------------------------------------------------------------|
E|---------------------------------------------------------------------------|

e|---15------12h15p12------------------------------------------12----12------|
B|---------------------15---12h15p12-------------------------12----15--------|
G|-------------------------------------14-----12h14p12-----------------------|
D|------------------------------------------------------14-------------------|
A|---------------------------------------------------------------------------|
E|---------------------------------------------------------------------------|

e|---12----------------------------------------------------------------------|
B|-------15-----12------------------12/15----------------------12/15---------|
G|-------------------14b(Half)--14--------------14b(Half)--14----------------|
D|---------------------------------------------------------------------------|
A|---------------------------------------------------------------------------|
E|---------------------------------------------------------------------------|

| 15(Full)(15)  Bend the String Fully, then return to original note
| *** Let Ring
|  B  bend
| t[] trill  
| /  slide up
| \  slide down
| h  hammer-on
| p  pull-off
| v  vibrato
| +  harmonic
| x  Mute note
===============================================================================
Comments