Black Sabbath - Snowblind Chords & Tabs

 

Snowblind Chords & Tabs

Black Sabbath Chords & Tabs

Version: 5 Type: Tab 0 ratings
1 star 2 stars 3 stars 4 stars 5 stars
comments

Snowblind Tab

This is how you really play Snowblind.
Tabbed by Hawaiian tabber

1st lick   x2
---------------------------------|
6------8----9----2----6----------|
6------8----9----2----6----------|
6------8----9----2----6----------|
4------6----7----4----4----------|
---------------------------------|

-------------------------------------|
-----------------2-------------------|
--------2-----------2-------2--------|
----2------2------------2------------|
0------------------------------------|
-------------------------------------|

-----------------------------|
---------------4-------------|
--------4 --------4------4---|
----4------4----------4------|
2----------------------------|
-----------------------------|

1st verse x6    What you get and what you see
---------------------------------------------------------|
6------6------2-----6-----2-----2-----2------------------|
6------6------2-----6-----2-----2-----2------------------|
6------6------2-----6-----2-----2-----2---------2--------|
4------4------4-----4-----4-----4-----4---2h4------------|
---------------------------------------------------------|

2nd Lick x2
-----------------------------------|
-----------------------------------|
-----------------------------------|
-----------------------------------|
4--------2-------1-----------------|
 ----------------------2-----------|

-----------------------------------------------|
---------2--------------------------4----------|
------2--------------------------4-------------|
---2-------------------------4-----------------|
0-----------------------2----------------------|
-----------------------------------------------|

2nd Verse x6  Something blowing in my head
---------------------------------------------------------|
6------6------2-----6-----2-----2-----2------------------|
6------6------2-----6-----2-----2-----2------------------|
6------6------2-----6-----2-----2-----2---------2--------|
4------4------4-----4-----4-----4-----4---2h4------------|
---------------------------------------------------------|

2nd Lick x2
-----------------------------------|
-----------------------------------|
-----------------------------------|
-----------------------------------|
4--------2-------1-----------------|
 ----------------------2-----------|

-----------------------------------------------|
---------2--------------------------4----------|
------2--------------------------4-------------|
---2-------------------------4-----------------|
0-----------------------2----------------------|
-----------------------------------------------|

1st lick   x2
---------------------------------|
6------8----9----2----6----------|
6------8----9----2----6----------|
6------8----9----2----6----------|
4------6----7----4----4----------|
---------------------------------|

-------------------------------------|
-----------------2-------------------|
--------2-----------2-------2--------|
----2------2------------2------------|
0------------------------------------|
-------------------------------------|
[ Tab from: http://www.guitartabs.cc/tabs/b/black_sabbath/snowblind_tab_ver_5.html ]
-----------------------------|
---------------4-------------|
--------4 --------4------4---|
----4------4----------4------|
2----------------------------|
-----------------------------|

Chorus x5  My eyes are blind but I can see
---------------------------------------------------------------------|
---------------6-----------------------------------------------------|
--------6-----------6--------6------------------4-----------4--------|
 ---6-----6------------6-------------------4-----------4-------------|
4----------------------------------------2----------1----------------|
---------------------------------------------------------------------|

----------------------------------------------------------------------|
-----------------2------------------------------------4---------------|
--------2 ---------2------2---------------5------------5-------5------|
----2------2-----------2--------------4-------4-----------4-----------|
0-----------------------------------6---------------------------------|


Solo
I'm to lazy to figure it out


3rd verse x6   Let the winter sun shine on
---------------------------------------------------------|
6------6------2-----6-----2-----2-----2------------------|
6------6------2-----6-----2-----2-----2------------------|
6------6------2-----6-----2-----2-----2---------2--------|
4------4------4-----4-----4-----4-----4---2h4------------|
---------------------------------------------------------|

2nd Lick x2
-----------------------------------|
-----------------------------------|
-----------------------------------|
-----------------------------------|
4--------2-------1-----------------|
 ----------------------2-----------|

-----------------------------------------------|
---------2--------------------------4----------|
------2--------------------------4-------------|
---2-------------------------4-----------------|
0-----------------------2----------------------|
-----------------------------------------------|

Don't you think I know what I'm doing
--------------------------------------------------------|
--------------------------------------------------------|
--------------------------------------------------------|        x6
--------------------------------------------------------|
-4-4-------77-------4-4------77---4---------------------|
----------------------------------------777-------------|

2nd Lick x2
-----------------------------------|
-----------------------------------|
-----------------------------------|
-----------------------------------|
4--------2-------1-----------------|
 ----------------------2-----------|

-----------------------------------------------|
---------2--------------------------4----------|
------2--------------------------4-------------|
---2-------------------------4-----------------|
0-----------------------2----------------------|
-----------------------------------------------|
outro x21   then fades off in the distance
---------------------------------------------------------|
6------6------2-----6-----2-----2-----2------------------|
6------6------2-----6-----2-----2-----2------------------|
6------6------2-----6-----2-----2-----2---------2--------|
4------4------4-----4-----4-----4-----4---2h4------------|
---------------------------------------------------------|


so that's it thanks for using my tab
Comments