Black Sabbath - Snowblind Chords & Tabs

 

Snowblind Chords & Tabs

Black Sabbath Chords & Tabs

Version: 3 Type: Tab 0 ratings
1 star 2 stars 3 stars 4 stars 5 stars
comments

Snowblind Tab

Tabbed by:Ryan(fuzzey82)
Song – Snowblind
Artist – Black Sabbath

Intro (Play 2x)
Main Riff
e----------------------------------------------------------*
B----------------------------------------------------------*
G---------------------------6---------------8--------------*
D-7-8-9--5--6---------7----7---------9---9-----------------*
A-5-6-7--3--4-------7--------7----9---------9--------------*
E-- --------------0--5-------------7-----------------------*


Verse:
:17
e--------------------------------------------*
B--------------------------------------------*
G--6-X-6-X-6-XX------------------------------*
D--6-X-6-X-6-XX---9-9----9-------------------*
A--4-X-4-X-4-XX---9-9--9---------------------*
E-- ---------------------7-7-----------------*

:41
e-----------------------------------------------*
B-----------------------------------------------*
G--6---6-5-4----------------6---------8---------*
D--6---6-5-4--------------7---------9-----------*
A--4---4-3-2---7------7----------9--------------*
E-- -------------5----5-----------7-------------*

Interlude
1:40
e------------------------------------------------------------*
B------------------------------------------------------------*
G--------4-------------6------------8-------------8----------*
D------5---5--------7---7-------9---9--------9---9-----------*
A----5-------5----7-------7---9-------9----9-------9---------*
E--3------------5------------7------------7------------------*

Solo
2:20
e---------------------------------------------------------------------------------*
B-12-h13-14-14-14-14--14-12-------------------------------------------------------*
G------------------------------------------14-12-11-10----------------------------*
D--------------------------------------------------------------9b—11b-------------*
A---------------------------------------------------------------------------------*
E---------------------------------------------------------------------------------*
[ Tab from: http://www.guitartabs.cc/tabs/b/black_sabbath/snowblind_tab_ver_3.html ]
E-------------------------------------------------------------------------------------*
B-------------------------------------------------------------------------------------*
G-----------------------9-9-9-9-----------------------------------------------9---11--*
D-------------9h11---------------11-9--------11-9--------9------9--11-----------------*
A---9-h11--------------------------------11------------11-----11----------------------*
E-------------------------------------------------------------------------------------*

e-------------------------------------------------------------------------------------*
B--------------------------------------------------------------------9-h12------------*
G--11-9--------------------------------------------------9-h11------------------------*
D------------11-9------------------------------9h11-----------------------------------*
A----------------------11-9-11-9-11-9-------------------------------------------------*
E-------------------------------------------------------------------------------------*


e-----------------------------------------------------14-12--------------------*
B---14-14-14-14--14--12---------------------------------14-12------------------*
G----------------------------------14-12-11-----------------------------14—12--*
A------------------------------------------------------------------------------*
D------------------------------------------------------------------------------*
E------------------------------------------------------------------------------*

3:20
e-----------------------------------------------------------------------*
B-----------------------------------------------------------------------*
G-----------------------------------------------------------------------*
D-----------------------------------------------------------------------*
A--4-4h7-7-p4--4h7-7-p4--4-h7-7-----------------------------------------*
E----------------------------------------------6-h7-6-h7----------------*

And that’s it! If you want the outro/solo I am in the process of tabbing it out and you 
send me an email for it once I get it finished. r1199s99@excite.com
Comments