Black Sabbath - Snowblind Chords & Tabs

 

Snowblind Chords & Tabs

Black Sabbath Chords & Tabs

Version: 5 Type: Bass Tab 0 ratings
1 star 2 stars 3 stars 4 stars 5 stars
comments

Snowblind Bass Tab

   
BLACK SABBATH VOL. 4 (1972)
SNOWBLIND

- TUNE DOWN  C#,F#,B,E.-(E,A,D,G.)

-4.
 4.
INTRO (x2)
G||-------------|--------------|-------------|-----7-------------||
D||.------------|--------------|-------5---5-|---7--------------.||
A||.-7--9--10---|-5---7--5-7-5-|-3-3-3---3---|-5------5-----5-5-.||
E||-------------|--------------|-------------|------------7------||

VERSE                       PLAY TILL BRIDGE...
G------------|-----------------|  |--------------|-----5-5-----7-||
D------------|---/5------------|  |--------------|---5-------7---||
A-7--7---5-7-|-(7)---5-5-----5-|  |-7--5-4-------|-3-------5-----||
E------------|------------7----|  |--------5--7\-|---------------||

VERSE
BRIDGE
INTRO


G------------|----------------|---------------|-----------------||
D------------|----------------|---------------|-------------5/9-||
A-7--7---7-7-|-5-5-5-5-4---4--|-3-3-3-3--3--3-|-2-2-2-2---7-----||
E------------|----------------|---------------|-----------------||
[ Tab from: http://www.guitartabs.cc/tabs/b/black_sabbath/snowblind_btab_ver_5.html ]
INTERLDE
G-9---9--------|------------------|-5---5--7-9-|-------------|-9---9--------
D----------5-7-|-----5-7------5-7-|------------|-9--9----5-7-|-----------5-7
A--------7-----|-7-------7--------|------------|------7------|--------7-----
E--------------|------------------|------------|-------------|--------------
   "MY EYES ARE BLIND..."                                 
G|----------------|-5--5--9-7-5-|------------------------||
D|-----5-7----5-7-|-------------|-9----9-9-9-------5--7-.||
A|-7-------7------|-------------|------------7-5--------.||
E|----------------|-------------|------------------------||
                                             
GUITAR SOLO

   ON D.S.
G----|9|------|9|--|-----7-----6-|-----5-------5-|-----4--4-----|------9----
D--|9|---|9|-------|---7-----6---|---5-------5---|---4----------|----9-----9
A-7----7----7----7-|-5-----4-----|-3-----3-------|-2--------2-5-|--7-----7--
E------------------|-------------|---------------|--------------|-----------

G--9-|-----7-----6-|-----5-------5-|-----4---4------||D.S al Coda |------|
D----|---7-----6---|---5-------5---|---4------------||            |------|
A----|-5-----4-----|-3-----3-------|-2----------2-5-||            |GUITAR|
E----|-------------|---------------|----------------||            |-ONLY-|
            

Up Tempo

G-----------------|---------------|-----------------|-----------------||
D-----5-5-----5-5-|-----5---/-9-5-|-----5-5-----5-5-|-----5---/9--5---||
A-7-7-----7-7-----|-7-7---7-------|-7-7-----7-7-----|-7-7---7------7/-||
E-----------------|---------------|-----------------|-----------------||

G-----------------|---------------|------------|-----5-5-----7-|
D-----5-5-----5-5-|-----5----/9-5-|------------|---5-------7---|
A-7-7-----7-7-----|-7-7----7------|-7--5-4-----|-3-------5-----|
E-----------------|---------------|--------5-7-|---------------|

VERSE
verse till the end of the song

PLEASE RATE AND COMMENT.

ratbollocks
Comments