Black Sabbath - Snowblind Chords & Tabs

 

Snowblind Chords & Tabs

Black Sabbath Chords & Tabs

Version: 4 Type: Bass Tab 0 ratings
1 star 2 stars 3 stars 4 stars 5 stars
comments

Snowblind Bass Tab

-----------------------------------------------------------------------------
			     Snowblind - Black Sabbath
-----------------------------------------------------------------------------

Tabbed By : some crazy guy
e-mail: Huang_dang@hotmail.com

Tuning: EADG

Part #1
G|-----------------------------------------------||
D|-----------------7---7---7-----------9---9-----||
A|---------------7---7---7---7-------9---9---9---||              
E|-9-11-12-7-9-5---------------5---7-----------7-||
repeat part #1 once then play part #2        

Part #2
G|-----------------||
D|-----------------||
A|-------------7---||
E|-9-9799-5-7-9-9--||
play part #2 a few times then play part #3

Part #3
G|------------------------------------------------------------||
D|--------------7---7---7---------------------7---7---7-------||
A|------------7---7---7---7-----------------7---7---7---7-----||
E|-9-762--2-5---------------5----9-762--2-5---------------5---||
[ Tab from: http://www.guitartabs.cc/tabs/b/black_sabbath/snowblind_btab_ver_4.html ]
play part #3 then play part #2 again a few times then play part #3 again.
after you play part #3 again play part #1 two times after the second time
play part #4

Part #4 
G|--------------------------------------------------------||
D|---11---------11-----9-8888-7777-9-11-------------------||
A|--------------------------------------11-11-11-11-------||
E|-9----9-11-12----12-------------------------------11-12-||
(i am not 100% correct on this part but i played it with the cd and it fit
so i kept it in) !!Play part #4 during the solo!! after playing part #4 play
part #2 a few times then play part #3 then after part #3 play part #5

Part #5
G|------------------------------------||
D|------------------------------------||
A|---77--77--77--------77--77--77-----||
E|-99--99--99--777---99--99--99--777--||
play part #5 a few times then play part #3 then play part #2 all the way
through the 2nd solo till the end

i didn't add any slides or hammer ons or pull offs i you can add them where you
feel like doing it just listen to the song while your playing this and you can
easily figure out what i was trying to say. i made it as easy as possible to read.
i hope it helps!!!
Comments