Black Sabbath - Snowblind Chords & Tabs

 

Snowblind Chords & Tabs

Black Sabbath Chords & Tabs

Version: 3 Type: Bass Tab 0 ratings
1 star 2 stars 3 stars 4 stars 5 stars
comments

Snowblind Bass Tab

   
Artist:Black Sabbath
Title:Snowblind
Album:volume 4
Tuning:EADG
Tabber:Justin van Uum
so,this is not the detunede version!!!
 
Key:
/=Slide
x=Ghost note
(b)=bend

Intro,comes back later in the song.
G-----------------------------4----4---|
D------------------2-2-2-----4--4-4---:|repeat
A-4-6-7--2--4--0-0--0-0-0-2-2--2-2--2-:|
E--------------------------------------|
[ Tab from: http://www.guitartabs.cc/tabs/b/black_sabbath/snowblind_btab_ver_3.html ]
Main riff ''What you get and what you see"
G----------------------------------------|
D---------------------------------------:|
A--4-x-4-2-4-4-7-7-7--4-x-4-2-4-4-7-7-7-:|
E----------------------------------------|

Chorus(???)
G----------------4---|
D-----------2-2-4---:|
A-4-2-1----0-0-2--2-:|
E------2/7-----------|

Bridge,or solo riff.
G------6-6--4---3---2-2--1---|
D---------------------------:|
A-4-44-----2---1--0----0----:|
E-------------------------4--|

Everything get's fast''don't you know I think what I'm doing??''
G-------------------------|
D------------------------:|
A-44-22-44-22-44-44-222--:|
E-------------------------|

Enjoy,just piece it together!!
Comments