Black Sabbath - Sleeping Village Chords & Tabs

 

Sleeping Village Chords & Tabs

Black Sabbath Chords & Tabs

Version: 3 Type: Tab 0 ratings
1 star 2 stars 3 stars 4 stars 5 stars
comments

Sleeping Village Tab

   
this is a very long + cool song to play most of it is fairly easy
Iommi does lots of cool pentatonics in this song
| /  slide up
| \  slide down
| h  hammer-on
| p  pull-off
| ~  vibrato
| +  harmonic
| x  Mute note
| ^  bend note

Tuning: EADGBe

e|-----------------------------------------------0--------|
B|--------------------------------------------0-----------|
G|-----------------0-----------------------0--------------| Till end of 1st
D|--------4-----4-----4-----------4-----4-----------------|      verse
A|-----7-----7-----------7-----7-----7--------------------|
E|--0-----------------------0-----------------------------|

0:53
e|------------------------------------|----------------------------|
B|------------------------------------|----------------------------|
G|--------------------------------8/9-|----------------------------| x4
D|-------------7-------7-9p7----7-----|------------7------7-9^-7---|
A|----------------7/9--------9--------|--------------7/9-----------|
E|--3/5-3/5-5-------------------------|--3/5-3/5-5-----------------|

1:22
e|---------------------------------------------------------|
B|---------------------------------------------------------|
G|---------------------------------------------------------|  x2
D|------7--5--4h5p4---------------7--5--4h5p4--------------|
A|---0--------------5-/-7------0---------------5/7---------|
E|---------------------------------------------------------|

1:38
e|----------------------------------------|
B|----------------------------------------|
G|------------------10~~~~----------------|  x4
D|--12---7---10-------------12------------|
A|--12---7---10---------------------------|
E|--10---5----8---------------------------|

2:13  first solo
e|----------------|---------------|----10----10------10----------|
B|----------------|---------------|----------------10---13-13^---|
G|----------------|----------10~~-|-12^---12^---12^--------------|
D|--12p10---10-12-|-12p10h12------|------------------------------|
A|-------12-------|---------------|------------------------------|
E|----------------|---------------|------------------------------|

e|-10------------|-----10--|-----13^-13-|-101310------10-|-------10----|
B|---13-101210---|-10------|--10--------|-------13-13^---|-13^~-----13-|
G|------------12-|---------|------------|----------------|-------------|
D|---------------|---------|------------|----------------|-------------|
A|---------------|---------|------------|----------------|-------------|
E|---------------|---------|------------|----------------|-------------|

e|-----------------|---------------------|---------------|-----------------|
B|-101210-------10-|-13p10---------------|---------------|-----------------|
G|-------12-12^----|------12p10-12p10----|---------------|-10--------------|
D|-----------------|------------------12-|-12p10---10-12-|----12-12p10-----|
A|-----------------|---------------------|------12-------|-------------12--|
E|-----------------|---------------------|---------------|-----------------|

e|--------------|-------------------|----------------|--------------|
B|--------------|-------------------|----------------|--------------|
G|--------------|-------------------|-10-10----------|-------10-10--|
D|-----12p10----|-12p10----12p10----|-------12p10----|-10h12--------|
A|-----------12-|-------12-------12-|-------------12-|--------------|
E|--------------|-------------------|----------------|--------------|

e|------------|-------------------|------------------|-----------------|
B|---------10-|-13p10----13p10----|-13p10---13p10----|-13p10-10-10-10--|
G|-----12^----|------12^------12^-|------12^-----12^-|-----------------|
D|------------|-------------------|------------------|-----------------|
A|------------|-------------------|------------------|-----------------|
E|------------|-------------------|------------------|-----------------|

e|------------------|-------10----|----------|-----13^-13-|
B|--13p10-----------|----------10-|-13-13^---|--10--------|
G|-------12-12p10---|-12^---------|----------|------------|
D|---------------12-|-------------|----------|------------|
A|------------------|-------------|----------|------------|
E|------------------|-------------|----------|------------|

e|-10h13p10-------10-|--------10----|------------------|---------------|
B|---------13-13^----|-13^~~-----13-|-12p10------------|---------------|
G|-------------------|--------------|------12--12p10---|---------------|
D|-------------------|--------------|---------------12-|-12p10---------|
A|-------------------|--------------|------------------|------12--10-8-|
E|-------------------|--------------|------------------|---------------|

e|-----------------|----------------|------------|-----------------------|
B|-----------------|----------------|------------|-----------------------|
G|-----------------|-10-10----------|------------|---(12b15r14r13)-12-12-|
D|-----10--12p10---|--------12p10---|-10--12--12-|-----------------------|
A|-/12----------12-|-------------12-|------------|-----------------------|
E|-----------------|----------------|------------|-----------------------|

e|-----------------|----------------|-----------|-----------------|
B|-----------------|----------------|--------13-|-15p13--15^-15^--|
G|--12p10----------|----------------|----/14----|------14---------|
D|--------12-12-12-|-12p10----10-12-|-----------|-----------------|
A|-----------------|-------12-------|-----------|-----------------|
E|-----------------|----------------|-----------|-----------------|

e|--------------------|----------------|-10----10--10---|
B|-15^-~~~---15-15p13-|----------------|----13----------|
G|--------------------|-14---12-12^-|-------------------|
D|--------------------|----------------|----------------|
A|--------------------|----------------|----------------|
E|--------------------|----------------|----------------|

e|----------10----|-------------------|---------------------|
B|-13^-~~~-----13-|-101210---------10-|-13p10---------------|
G|----------------|--------12-12^-----|-------12--101210----|
D|----------------|-------------------|------------------12-|
A|----------------|-------------------|---------------------|
E|----------------|-------------------|---------------------|

e|--------10----|--13^--13^--|-13^---13-101310-|----10-----10----|
B|-----10----10-|------------|-----------------|-13----13^-------|
G|-12^----------|------------|-----------------|-----------------|
D|--------------|------------|-----------------|-----------------|
A|--------------|------------|-----------------|-----------------|
E|--------------|------------|-----------------|-----------------|

e|---10----|--------------------|------------------|-----------------------|
B|------13-|-12p10----10--13p10-|------------------|-----------------------|
G|---------|------12------------|-12p10------------|-----------------------|
D|---------|--------------------|------12--12p10---|-----------------------|
A|---------|--------------------|---------------12-|--12--8--8h10-8h10-----|
E|---------|--------------------|------------------|-----------------------|

e|------------|---------------|----------------|------------|
B|------------|---------------|----------------|------------|
G|------------|-10-10---------|----------------|-10-10~~~---|
D|----12p10---|-------12p10---|-10-10-10-10h12-|------------|
A|---------12-|------------12-|----------------|------------|
E|------------|---------------|----------------|------------|
solo end  3:05

3:07
e|----------------------------------------|
B|----------------------------------------|
G|------------------10~~~~----------------|  x 4
D|--12---7---10-------------12------------|
A|--12---7---10---------------------------|
E|--10---5----8---------------------------|

3:52
e|------------------------------------13^----13-10-------------------------|
B|--8/10~~------------13~~~~~-----10----------------13-10------------------|
G|----------12^-12-10--------------------------------------12p10-12-10-----|
D|-------------------------------------------------------------------------|
A|----------------------------------------------------------------------12-|
E|-------------------------------------------------------------------------|

4:03 (Verse)
e|----------------------------------------------------------------------------|
B|-----------------10\\----------------10\\--------------10\\-------------10\\|
G|----------10-----10\\---12^-10-------10\\--------10----10\\---12^-10----10\\|
D|-------------12----------------12-------------------12---------------12-----|
A|----10h12----------------------------------10h12----------------------------|
E|----------------------------------------------------------------------------|

4:28 (weird rhythm)
e|-----------------------------------------|
B|-----------------------------------------|
G|-----------------------------------------|
D|-3---3-3-3-3-3--4-4--5---5-5-5-5-5-5-----|
A|-3---3-3-3-3-3--4-4--5---5-5-5-5-5-5-----|
E|-1---1-1-1-1-1--2-2--3---3-3-3-3-3-3-----|

4:34 (fill)
e|--------10------------|-------10------------------------|
B|-----10----13^-^-^-^--|-----10--13-10-------------------|
G|--13------------------|---13---------12^p10-12-10~~-----|  back to verse
D|----------------------|---------------------------------|
A|----------------------|---------------------------------|
E|----------------------|---------------------------------|

5:09 (fill 2)
e|-13^---13-13^-|-13-10----------------------|
B|--------------|------13-10-----------------|
G|--------------|-----------12^p10-12-10-----|
D|--------------|----------------------------|
A|--------------|------------------------12--|
E|--------------|----------------------------|

5:16 second solo
e|-----10--------------------------------|------10--------------------------|
B|---10----13-10-------------------------|----10--10-13-10------------------|
G|-12-----------12^p10-12p10----10h12-10-|--12------------12^p10-12--10h12--|
D|---------------------------12----------|-------------------------12-------|
A|---------------------------------------|----------------------------------|
E|---------------------------------------|----------------------------------|

e|-----------------------|-------13-15^-15^-------|
B|-------------13-15--13-|-13-15------------15p13-|
G|-10-----12/14-----14---|------------------------|
D|-----------------------|------------------------|
A|-----------------------|------------------------|
E|-----------------------|------------------------|

e|--------10--------------------------|--------------------------------|
B|---10-13--13------------------------|--------------------------------|
G|-13-----------13-12p10-12^p10-12-10-|----------10--------------------|
D|------------------------------------|----10-12-----12p10-------------|
A|------------------------------------|---------------------12-10-8-10-|
E|------------------------------------|--------------------------------|


e|---------------------------|--------------10------------|
B|---------------------------|------------10---13p10------|
G|-----------10-12-12^p10----|----------13----------12p10-|
D|-------/12--------------12-|---12-----------------------|
A|-8-------------------------|----------------------------|
E|---------------------------|----------------------------|

e|-------------------------------|------10------------13^---|
B|--------------------10---------|----10--13^-~~---10-------|
G|--------------------10---------|-12^----------------------|
D|---------10---10h12------10/20-|--------------------------|
A|-10h12-------------------------|--------------------------|
E|-------------------------------|--------------------------|

e|-13-10--------------------------|-------------------|
B|-------13-10--------------------|----------10-------|
G|-------------12-12^p10-12-10----|----------10-12-10-|
D|--------------------------------|----10h12----------|
A|-----------------------------12-|-------------------|
E|--------------------------------|-------------------|

e|------------10\------|-----------------------------------|
B|-----10-----10\------|--------10----10----10-10-10----10-|
G|-12^--------10\------|--------10-12-10-12-10-12-10-12-10-|
D|---------------------|--10h12----------------------------|
A|---------------------|-----------------------------------|
E|---------------------|-----------------------------------|

e|----------10\-----------13-|-15^-15-------------------------------|
B|-----10---10\-----13-15----|--------15-13--------13-15-13---------|
G|-12^------10\--------------|----------------13h14--------13\12-10-|
D|---------------------------|--------------------------------------|
A|---------------------------|--------------------------------------|
E|---------------------------|--------------------------------------|
[ Tab from: http://www.guitartabs.cc/tabs/b/black_sabbath/sleeping_village_tab_ver_3.html ]
e|--------10---------10------------------|-----------------------------|
B|-----------10-13^-----13---------------|-----------------------------|
G|-12-12^------------------12^p10-12--10-|---------10------------------|
D|----------------------------------12---|---10-12----12p10------------|
A|---------------------------------------|------------------12\10-8h10-|
E|---------------------------------------|-----------------------------|

e|-----------------------------------|------------10-------------|
B|-----------------------------------|----------10---13p10-------|
G|--------------------10-12-12^p10---|------12^------------12p10-|
D|---------------10/12------------12-|-12------------------------|
A|-8---------------------------------|---------------------------|
E|-----------------------------------|---------------------------|

e|-----------------------------/x--|--------10------/x-------13^-|
B|---------------------10/--x/-----|-----10----13^/-------10-----|
G|---------------------10/---------|-12^-------------------------|
D|---------10----10h12-------------|-----------------------------|
A|-10h12---------------------------|-----------------------------|
E|---------------------------------|-----------------------------|

e|-13-10-----------------------|
B|-------13-10-----------------|
G|------------12^p10-12--10----|
D|--------------------------12-|
A|-----------------------------|
E|-----------------------------|
end of solo 6:24

6:28
e|----------------------------------------------------------------------------|
B|-----------------10\\----------------10\\--------------10\\-------------10\\|
G|----------10-----10\\---12^-10-------10\\--------10----10\\---12^-10----10\\|
D|-------------12----------------12-------------------12---------------12-----|
A|----10h12----------------------------------10h12----------------------------|
E|----------------------------------------------------------------------------|
6:53
e|-----------------------------------------|
B|-----------------------------------------|
G|-----------------------------------------|
D|-3---3-3-3-3-3--4-4--5---5-5-5-5-5-5-----|
A|-3---3-3-3-3-3--4-4--5---5-5-5-5-5-5-----|
E|-1---1-1-1-1-1--2-2--3---3-3-3-3-3-3-----|

7:08   third solo
|-1310-1310-13^--13--101310-------10-1310--13^-1310-1310-10---10-------------10-|
|--------------------------10-13^--------------------------13---1310--10-13^----|
|-------------------------------------------------------------------12----------|
|-------------------------------------------------------------------------------|
|-------------------------------------------------------------------------------|
|-------------------------------------------------------------------------------|

|---------------------------------101310-101310----------------|
|-1310--10----------------10-1310---------------10-------------|
|-----12--1210-121012-12^-------------------------1210-1012-10-|
|--------------------------------------------------------------|
|--------------------------------------------------------------|
|--------------------------------------------------------------|

|-----------------------------------------13^---|-1310-10-1310---10------|
|---------------------------------------10------|-------------13^---1310-|
|-------------------------------------10--------|------------------------|
|-101210-12-10---------------1012---------------|------------------------|
|--------------12\10-8-10/12--------------------|------------------------|
|-----------------------------------------------|------------------------|

|-1310-101310---------------------|---------------------------------------------|
|------------13-1310---10-1310----|---------------------------------------------|
|-------------------12---------12-|-1210-1210-----------------------------------|
|---------------------------------|----------12-1210-1210-10--------------------|
|---------------------------------|-------------------------12-11-10/11-10-8----|
|---------------------------------|-----------------------------------------10\-|

|-----------||--------------------------------------------|
|-----------||-----------------------------12\------------|
|-----------||--------12-12-12-12~~~-------12\------------|
|--12---14--||--12h14----------------------14\----(x 2)---|
|--12---14--||--------------------------------------------|
|--10---12--||--------------------------------------------|

|---------------12---12-----------------15^-|-1512--12--1512--12-15121512-1512--12-|
|-------------12--12----15---15^--15-12-----|-----15--------15----------------15---|
|-------12-14^------------------------------|--------------------------------------|
|-12h14-------------------------------------|--------------------------------------|
|-------------------------------------------|--------------------------------------|
|-------------------------------------------|--------------------------------------|

|-12-12-12-12---12-12-12-12---12-12-12-12-12-12-12-12---|
|--------------------------------------------------12---|
|-------------------------------------------------------|
|-------------------------------------------------------|
|-------------------------------------------------------|
|-------------------------------------------------------|

         rake:
|-15^-15-(12--15----------------15^-1512--12-12-------1512-1512--|
|--------)12------)12--1512--12---------15---12---1512-----------|
|--------(14------(12--------------------------------------------|
|----------------------------------------------------------------|
|----------------------------------------------------------------|
|----------------------------------------------------------------|


|---------------12------------15^-|
|-1512--15-15^-----1512----12-----|
|-----14----------------14--------|
|---------------------------------|
|---------------------------------|
|---------------------------------|

|-1512--12-1512---12-----12--------------------------------------|
|-----15-------15-15--15^-----1512---12-1512-1512----------------|
|---------------------------------14---------------14^-14^-------|
|----------------------------------------------------------(12)--|
|----------------------------------------------------------------|
|----------------------------------------------------------------|

|----------------15^--1512----12-15--12-------------------------------------|
|-1512-1512-1512-----------15-----------15^--15-12-15-12-12-----------------|
|----------------------------------------------------------14--1412--12-----|
|------------------------------------------------------------------14--14---|
|---------------------------------------------------------------------------|
|---------------------------------------------------------------------------|

|-------------------------------------------------------------|
|-------------------------------------------------------------|
|----------------------------12^------------------------------|
|-1412----12-14------12---14-----1214-12----------------------|
|------14-------1214-----------------------14\12--10--12/14---|
|-------------------------------------------------------------|

|----------------------------------------------------------------------------|
|----------------------------------------------------------------------------|
|-------12----------------------------------12-------------------------------|
|-12-14----1214-12-----12----------------12----1214-12----12-----------------|
|-----------------1214----14\12-10-12h14--------------1214---14\12-10--------|
|---------------------------------------------------------------------10/12--|

|-------------------------------------------------------|
|-------------------------------------------------------|
|-------12-------12-------12--14^-14-12----------(x 4)--|
|-12h14----12h14----12h14-------------------------------|
|-------------------------------------------------------|
|-------------------------------------------------------|

|------12------------------15^--15^^^-12-1512---|-1512-----------------12--------|
|----12---15-15^-----15-12-------------------15-|-----15-1512--------12--1512----|
|-14^-------------------------------------------|-------------14-14^---------14--|
|-----------------------------------------------|--------------------------------|
|-----------------------------------------------|--------------------------------|
|-----------------------------------------------|--------------------------------|

|------------------------------------12-|------12-----12----------|
|---------------------------------12----|----12-----12--15^--15^--|
|-1214121412-----------------14^--------|-14^----14^--------------|
|------------1412----1214---------------|-------------------------|
|-----------------14--------------------|-------------------------|
|---------------------------------------|-------------------------|

|-12----------12-------|------------------12--------|-----12----------------------|
|---15-12---12--1512---|-12-12-1512----------1512---|--------1512-----------------|
|--------14^--------14-|-----------14-14^--------14-|-14^--------14-14^-12-14--12-|
|----------------------|----------------------------|-----------------------------|
|----------------------|----------------------------|-----------------------------|
|----------------------|----------------------------|-----------------------------|

|-----12-----12-----------------|---------------------|
|---------------15-15-121412----|---------------------|
|-14^----14^-----------------14-|-14^--14^--14^^-1214-|
|-------------------------------|---------------------|
|-------------------------------|---------------------|
|-------------------------------|---------------------|


|----------------------|---------------------------------|
|----------------------|---------------------------------|
|-12-------------12----|---------------------------------|
|-----1412--1214----14-|-----------14--------------------|
|---------14-----------|-----12-14----14\----------------|
|----------------------|-------------------0-------------|

|-------------------------------------------------------|
|-------------------------------------------------------|
|-------------------------------------------------------|
|---------0h2-----------------------------------0h2-----|
|---0h2-----------------------------------0h2-----------|
|-0-----3-----0-0-0-0-0-0-0-0-0-0-0-0-0-0-----3---------|

|-------------------------|------------------------------|
|-------------------------|------------------------------|
|------------4^--2h4---4--|--/9\-------------4^--2h4---4-|
|---------2---------------|---------------2--------------|
|---0h2-------------------|---------0h2------------------|
|-0-----3-----------------|-------3-----3----------------|

|-------------------------10^-10^-10^----10^^^------------------|
|-----8-----8---10^p8------------------------------8---10^-8----|
|-4/9---9-----9-------9------------------------9-----9----------|
|---------------------------------------------------------------|
|---------------------------------------------------------------|
|---------------------------------------------------------------|

|----15^-15p12----15p12----------12--------------------|
|-12-----------12-------12-12h15----15p12----12--------|
|-----------------------------------------14-12--------|
|------------------------------------------------------|
|------------------------------------------------------|
|------------------------------------------------------|

|-----------------12-----------------------------------|
|--------------12----15p12-----------------12----------|
|-------12-14^-------------14-121412141214-12----------|
|-12h14------------------------------------------------|
|------------------------------------------------------|
|------------------------------------------------------|

|------------------------------------------------------|
|---------------------------------12-------------------|
|---------------------12----------12-------------------|
|-(12)h14p12----12h14----14p12h12----------------------|
|------------14----------------------------------------|
|------------------------------------------------------|

|------------------------------------------------------|
|----------12----------------------------12-12---------|
|----------12----------------------------12-12---------|
|-14p12-------14p12----------12-14p12h14---------------|
|-------14----------14-12h14---------------------------|
|------------------------------------------------------|

                              full full 1.5
|------------------------------------------------------|
|----------12-12--------12-15--------------------------|
|----------12-12----14^-------14^--14^--14^------------|
|-14p12h14-------14------------------------------------|
|------------------------------------------------------|
|------------------------------------------------------|

|------------------------------------------------------|
|--------------------------------------12\-------------|
|-12-14-12h14-12~----------------------12\-------------|
|------------------------------------------------------|
|------------------------------------------------------|
|------------------------------------------------------|
for next part you are on your own just go crazy in E till 10:44 I don't know rest of song
Comments