Black Sabbath - Sabbath Bloody Sabbath Chords & Tabs

 

Sabbath Bloody Sabbath Chords & Tabs

Black Sabbath Chords & Tabs

Version: 2 Type: Tab 0 ratings
1 star 2 stars 3 stars 4 stars 5 stars
comments

Sabbath Bloody Sabbath Tab

Artist:    Black Sabbath
Title:     Sabbath, Bloody Sabbath
Tunning:   Standard
Tabbed by: Twistid
                    
                                                        
E||-------------------------|-------------------------|---------------------|
B||-------------------------|-------------------------|---------------------|
G||-------------------------|-------------------------|---------------------|
D||--7/-9--------9----------|--7/-9--------9----------|--5------7------9----|
A||--5/-7--7--7--7----7--7--|--5/-7--7--7--7----0--0--|--3------5------7----|
E||-------------------------|-------------------------|---------------------|


                                                                             
------------------------|-------------------------|-------------------------|
------------------------|-------------------------|-------------------------|
------------------------|-------------------------|-------------------------|
----12----9--9----------|--7/-9--------9----------|--7/-9--------9----------|
----10----7--7----7--7--|--5/-7--7--7--7----7--7--|--5/-7--7--7--7----0--0--|
------------------------|-------------------------|-------------------------|


                                                                         
---------------------|------------------------|-------------------------|
---------------------|------------------------|-------------------------|
---------------------|------------------------|-------------------------|
--5------7------9----|----12----9--9----------|--7/-9--------9----------|
--3------5------7----|----10----7--7----7--7--|--5/-7--7--7--7----7--7--|
---------------------|------------------------|-------------------------|


                                                                         
-------------------------|---------------------|------------------------|
-------------------------|---------------------|------------------------|
-------------------------|---------------------|------------------------|
--7/-9--------9----------|--5------7------9----|----12----9--9----------|
--5/-7--7--7--7----0--0--|--3------5------7----|----10----7--7----7--7--|
-------------------------|---------------------|------------------------|


                                                                          
-------------------------|-------------------------|---------------------|
-------------------------|-------------------------|---------------------|
-------------------------|-------------------------|---------------------|
--7/-9--------9----------|--7/-9--------9----------|--5------7------9----|
--5/-7--7--7--7----7--7--|--5/-7--7--7--7----0--0--|--3------5------7----|
-------------------------|-------------------------|---------------------|


                                                                             
------------------------|-------------------------|-------------------------|
------------------------|-------------------------|-------------------------|
------------------------|-------------------------|-------------------------|
----12----9--9----------|--7/-9--------9----------|--7/-9--------9----------|
----10----7--7----7--7--|--5/-7--7--7--7----7--7--|--5/-7--7--7--7----0--0--|
------------------------|-------------------------|-------------------------|


                                                                            
---------------------|------------------------|----------------------------|
---------------------|------------------------|----------------------------|
---------------------|------------------------|--14b---16--12--14----------|
--5------7------9----|----12----9--9----------|--------------------14~-----|
--3------5------7----|----10----7--7----7--7--|----------------------------|
---------------------|------------------------|----------------------------|


                                                                      
----------------------------|----------------------------------------|
----------------------------|--17----15----12------------------------|
--14b---16--12--14----------|------------------14--16-14-12----------|
--------------------14------|--------------------------------14---14-|
----------------------------|----------------------------------------|
----------------------------|----------------------------------------|


                                                    
------------------|--------------------------------|
------------------|--------------------------------|
------------------|------16--16--16h14h12------12--|
------------------|------------------------14------|
------------------|--------------------------------|
------------------|--------------------------------|


                                                                            
----------------------------------|----------------------------------------|
----------------------------------|--17----15----12------------------------|
--16--16--16--16--16h14h12--------|------------------14--16h14h12----------|
----------------------------14----|--------------------------------14---14-|
----------------------------------|----------------------------------------|
----------------------------------|----------------------------------------|


                                                                  
------------------||-----------------------|---------------------|
------------------||-----------------------|---------------------|
------------------||*----------------------|---------------------|
------------------||*--7------7----5--7----|----7----5--7--------|
------------------||-----------------------|---------------------|
------------------||-----------------------|---------------------|

[ Tab from: http://www.guitartabs.cc/tabs/b/black_sabbath/sabbath_bloody_sabbath_tab_ver_2.html ]
                                                                    
---------------------|----------------------||---------------------|
---------------------|----------------------||---------------------|
---------------------|---------------------*||------4----5----4----|
--5------4------5----|------4----5---------*||---------------------|
---------------------|----------------7-----||---------------------|
---------------------|----------------------||---------------------|


                                                                  
-------------------|------------------|--------------------------|
-------------------|------------------|--------------------------|
-------------------|------------------|--------------------------|
--4----------------|------------------|--------------------------|
--2----------------|------------------|--------------------------|
-------------------|------------------|--0--0--3--2--3--2--3--0--|


                                                                           
-----------------------|--------------------------|-----------------------|
-----------------------|--------------------------|-----------------------|
-----------------------|--------------------------|-----------------------|
-----------------------|--------------------------|-----------------------|
-----------------------|--------------------------|-----------------------|
----0--3--2--3--4------|--0--0--3--2--3--2--3--0--|----0--3--2--3--4------|


                                                                              
--------------------------|-----------------------|--------------------------|
--------------------------|-----------------------|--------------------------|
--------------------------|-----------------------|--------------------------|
--------------------------|-----------------------|--------------------------|
--------------------------|-----------------------|--------------------------|
--0--0--3--2--3--2--3--0--|----0--3--2--3--4------|--0--0--3--2--3--2--3--0--|


                                                                           
-----------------------|--------------------------|-----------------------|
-----------------------|--------------------------|-----------------------|
-----------------------|--------------------------|-----------------------|
-----------------------|--------------------------|-----------------------|
-----------------------|--------------------------|-----------------------|
----0--3--2--3--4------|--0--0--3--2--3--2--3--0--|----0--3--2--3--4------|


                                                                              
--------------------------|-----------------------|--------------------------|
--------------------------|-----------------------|--------------------------|
--------------------------|-----------------------|--------------------------|
--------------------------|-----------------------|--------------------------|
--------------------------|-----------------------|--------------------------|
--0--0--3--2--3--2--3--0--|----0--3--2--3--4------|--0--0--3--2--3--2--3--0--|


                                                                           
-----------------------|--------------------------|-----------------------|
-----------------------|--------------------------|-----------------------|
-----------------------|--------------------------|-----------------------|
-----------------------|--------------------------|-----------------------|
-----------------------|--------------------------|-----------------------|
----0--3--2--3--4------|--0--0--3--2--3--2--3--0--|----0--3--2--3--4------|


                                                                              
--------------------------|-----------------------|--------------------------|
--------------------------|-----------------------|--------------------------|
--------------------------|-----------------------|--------------------------|
--------------------------|-----------------------|--------------------------|
--------------------------|-----------------------|--------------------------|
--0--0--3--2--3--2--3--0--|----0--3--2--3--4------|--0--0--3--2--3--2--3--0--|


                                                                         
-----------------------|-------------------------|----------------------|
-----------------------|-------------------------|----------------------|
-----------------------|-------------------------|----------------------|
-----------------------|--9--9--9--7--9--9----9--|----7----5------------|
-----------------------|--7--7--7--5--7--7----7--|----5----3--------2/5-|
----0--3--2--3--4------|-------------------------|----------------------|


                                                                           
-------------------------|----------------------|-------------------------|
-------------------------|----------------------|-------------------------|
-------------------------|----------------------|-------------------------|
--9--9--9--7--9--9----9--|----7----5------------|--9--9--9--7--9--9----9--|
--7--7--7--5--7--7----7--|----5----3--------2/5-|--7--7--7--5--7--7----7--|
-------------------------|----------------------|-------------------------|


                                                             
---------------------|-------------------|------------------|
---------------------|-------------------|------------------|
---------------------|-------------------|------------------|
----7----5------7----|--4----------------|------------------|
----5----3------5----|--2----------------|------------------|
---------------------|-------------------|------------------|


                                           
-------------------|----------------------|
-------------------|----------------------|
-------------------|----------------------|
--4----------------|----------------------|
--2----------------|-------------------0--|
-------------------|----------------2-----|


                                                                            
|------------------------------------|------------------------------------||
|------------------------------------|------------------------------------||
|*-----------------------------------|-----------------------------------*||
|*-----------------------------------|-----------------------------------*||
|---2----2--2h-0-----2----2-------0--|--2----2--2h-0-----2----2-------0---||
|-----------------2------------2-----|----------------2------------2------||
Comments