Black Sabbath - Sabbath Bloody Sabbath Chords & Tabs

 

Sabbath Bloody Sabbath Chords & Tabs

Black Sabbath Chords & Tabs

Version: 1 Type: Tab 2 ratings
1 star 2 stars 3 stars 4 stars 5 stars
comments

Sabbath Bloody Sabbath Tab

   
#----------------------------------PLEASE NOTE---------------------------------#
#This file is the author's own work and represents their interpretation of the #
#song. You may only use this file for private study, scholarship, or research. #
#------------------------------------------------------------------------------##

                             SABBATH BLOODY SABBATH
                          As recorded by Black Sabbath
                  (From the 1974 Album SABBATH BLOODY SABBATH)

Words and Music by Sabbath Bloody Sabbath
Transcribed by KaZu

         Em/C                 D5/A                  G5                    G
    x x 10 12 12 12       x x x x 10 10       x x x 12 15 15       x 10 12 12 12 x

         Bm/G                  Am                    D                   A/D
    x 10 12 11 12 x        5 7 7 5 5 5          x x 0 2 3 2          x x 0 2 2 0

Gtr I (C# F# B E G# C#) - 'Gtr1 Dist'
Gtr II (C# F# B E G# C#) - 'Acoustic Gtr3'
Gtr III (C# F# B E G# C#) - 'Clean1 Gt2'
Gtr IV (C# F# B E G# C#) - 'Clean2 Gtr1'
Gtr V (C# F# B E G# C#) - 'Gtr4 dist'
Gtr VI (C# F# B E G# C#) - 'Gtr6'

   Intro
    Slow, Heavy Rock Q=66
    C#5                           A5 B5    C#5   E5    C#5
   4/4
    Gtr I
              PM|           PM|                          PM|
    S S S S E S S S S S S E S S   E. S +E  E +S   E  S E S S
||------------------------------|------------------------------||
||o-----------------------------|-----------------------------o||
||------------------------------|------------------------------||
||--0h9-9-9-9-----0h9-9-9-9-----|-5--7-(7)-9-(9)-12-9-9-9-9---||
||o-0-7-7-7-7-7-7-0-7-7-7-7-0-0-|-3--5-(5)-7-(7)-10-7-7-7-7--o||
||------------------------------|------------------------------||


 1st Verse
  C#5                           A5 B5    C#5   E5    C#5
 4/4
            PM|           PM|                          PM|
  S S S S E S S S S S S E S S   E. S +E  E +S   E  S E S S
|-----------------------------|----------------------------|
|-----------------------------|----------------------------|
|-----------------------------|----------------------------|
|-0h9-9-9-9-----0h9-9-9-9-----|-5--7-(7)-9-(9)-12-9-9-9-9-|
|-0-7-7-7-7-7-7-0-7-7-7-7-0-0-|-3--5-(5)-7-(7)-10-7-7-7-7-|
|-----------------------------|----------------------------|


  C#5                           A5 B5    C#5   E5    C#5
 4/4
            PM|           PM|                          PM|
  S S S S E S S S S S S E S S   E. S +E  E +S   E  S E S S
|-----------------------------|----------------------------|
|-----------------------------|----------------------------|
|-----------------------------|----------------------------|
|-0h9-9-9-9-----0h9-9-9-9-----|-5--7-(7)-9-(9)-12-9-9-9-9-|
|-0-7-7-7-7-7-7-0-7-7-7-7-0-0-|-3--5-(5)-7-(7)-10-7-7-7-7-|
|-----------------------------|----------------------------|


  C#5                           A5 B5    C#5   E5    C#5
 4/4
            PM|           PM|                          PM|
  S S S S E S S S S S S E S S   E. S +E  E +S   E  S E S S
|-----------------------------|----------------------------|
|-----------------------------|----------------------------|
|-----------------------------|----------------------------|
|-0h9-9-9-9-----0h9-9-9-9-----|-5--7-(7)-9-(9)-12-9-9-9-9-|
|-0-7-7-7-7-7-7-0-7-7-7-7-0-0-|-3--5-(5)-7-(7)-10-7-7-7-7-|
|-----------------------------|----------------------------|


 1st Chorus
    Em/C D5/AG5   Em/C            G
  Gtr II
  E E S  S S  S S E    S E    E   E.    S  +E  E +S  S S S  E.           S
    | |  |    |   |    | |    |   |     |   |  |  |  |   |  |            |
    / /  /    /   /    / /    /   /     /   /  /  /  /   /  /            /

  Gtr III
  W                               E. a  S  +E  E +S  S S S  S      S  S  S
|-------------------------------|-7----------------------------------10-----|
|-------------------------------|----8h10-(10)-8-(8)-----8-10b12==10----10--|
|-------------------------------|--------------------7-9--------------------|
|-------------------------------|-------------------------------------------|
|-------------------------------|-------------------------------------------|
|-------------------------------|-------------------------------------------|
|
| Gtr IV
| Q   E.      S S S S  S S E.     E. a  S  +E  E +S  S S S  S      S  S  S
|------------12---8---10---8----|-------------------------------------------|
|-------------------------------|-8-----------------------------------------|
|-------------7---5----7---5----|-7-----------------------------------7-----|
|-------------------------------|-9--5h=7--(7)-5-(5)-----5--7s=====9-----9s=|
|-------------------------------|--------------------5h7--------------------|
|-------------------------------|-------------------------------------------|


  Em/C                       Bm/G
   E  S S S S E +S E S E E   E. S S  S E   +S  E    S E          E
   |  | |   | |  | | | | |   |  |    | |    |  |    | |          |
   /  / /   / /  / / / / /   /  /    / /    /  /    / /          /

                                                      |------3------|
   W                         H              S  S S  S E    S  a  S  E
|--------------------------|---------------17-15---12-----10-----------|
|-10r----------------------|---------------------------------12s10-----|
|--------------------------|---------------------------------------12--|
|--------------------------|-------------------------------------------|
|--------------------------|-------------------------------------------|
|--------------------------|-------------------------------------------|
|
|                                                     |------3------|
|  W                         Q    E.     S  S  S S  S E a  E        E
|--------------------------|-------------------------------------------|
|--------------------------|-------------------------------------------|
|--------------------------|--------------------------7-------------7--|
|--7-----------------------|-------------------5-7s=9---7s=9-----------|
|--------------------------|-------------5h=7--------------------------|
|--------------------------|-------------------------------------------|


  Em/C                         Bm/G
     E  S S S S E +S E S E E   E S S S S E +S  E    S  E       E
     |  | |   | |  | | | | |   | | |   | |  |  |    |  |       |
     /  / /   / /  / / / / /   / / /   / /  /  /    /  /       /

                                                       |----3----|
  A  H.                  Q     H            S  S S  S  E  A  E   E
|----------------------------|----------------12------10------------|
|-8h10-----------------------|---------------------12----12p10------|
|----------------------------|-----------------------------------9--|
|----------------------------|--------------------------------------|
|----------------------------|--------------------------------------|
|----------------------------|--------------------------------------|
|
|                                                      |----3----|
|    H.                  Q     H            S  S S  S  E  A  E   E
|----------------------------|--------------------------------------|
|----------------------------|--------------------------------------|
|----------------------------|-------------------------7--7h=9---9--|
|----7-----------------------|-----------------5-7h=9---------------|
|----------------------------|--------------------------------------|
|----------------------------|--------------------------------------|


    Am                            D  A/D   D     A/DD
     E  S S  S  S E +S  E S E E   E. S +E  E +S  E. E E
     |  | |     | |  |  | | | |   |  |  |  |  |  |  | |
     /  / /     / /  /  / / / /   /  /  /  /  /  /  / /

  Gtr III                       Gtrs III, IV
     W                            E. S +E  E +S  E. E E
|-------------------------------|-2--0-(0)-2-(2)-0--2-2--|
|---10--------------------------|-3--2-(2)-3-(3)-2--3-3--|
|-------------------------------|-2--2-(2)-2-(2)-2--2-2--|
|-7h=9----7-(7)---5-(5)---------|-0--0-(0)-0-(0)-0--0-0--|
|-------------------------------|------------------------|
|-------------------------------|------------------------|
  A  E.   S +E    E +H


  C#5                             A5 B5    C#5   E5    C#5
 4/4
  Gtr I
             PM|            PM|                            PM|
  S S S S E  S S S S S S E  S S   E. S +E  E +S   E  S E   S S
|-------------------------------|-------------------------------|
|-------------------------------|-------------------------------|
|-------------------------------|-------------------------------|
|-0h9-9-9-9------0h9-9-9-9------|-5--7-(7)-9-(9)-12-9-9---9-9--|
|-0-7-7-7-7--7-7-0-7-7-7-7--0-0-|-3--5-(5)-7-(7)-10-7-7---7-7--|
|-------------------------------|-------------------------------|
|
| Gtr V
|         ~~             ~~                            ~~~~~~
| S S S S E.   S S S S S E.   S   E. S +E  E +S   E  S S S E
|-------------------------------|-------------------------------|
|-------------------------------|-------------------------------|
|-7h9-9-9-9----9-7h9-9-9-9----7-|-5--7-(7)-9-(9)S12--9-9-9-9----|
|-------------------------------|-------------------------------|
|-------------------------------|-------------------------------|
|-------------------------------|-------------------------------|


 2nd Verse
  C#5                           A5 B5    C#5   E5    C#5
 4/4
            PM|           PM|                            PM|
  S S S S E S S S S S S E S S   E. S +E  E +S   E  S E   S S
|-----------------------------|-------------------------------||
|-----------------------------|-------------------------------||
|-----------------------------|-------------------------------||
|-0h9-9-9-9-----0h9-9-9-9-----|-5--7-(7)-9-(9)-12-9-9---9-9--||
|-0-7-7-7-7-7-7-0-7-7-7-7-0-0-|-3--5-(5)-7-(7)-10-7-7---7-7--||
|-----------------------------|-------------------------------||
|
|         ~             ~                            ~~~~~~
| S S s s Q     S S S S E S S   E. S +E  E +S   E  S S S E
|-----------------------------|-------------------------------||
|-----------------------------|-------------------------------||
|-7h9-9-9-9-----7h9-9-9-9-9-9-|-5--7-(7)-9-(9)S12--9-9-9-9----||
|-----------------------------|-------------------------------||
|-----------------------------|-------------------------------||
|-----------------------------|-------------------------------||


  C#5                             A5 B5    C#5   E5    C#5
 4/4
             PM|            PM|                            PM|
  S S S S E  S S S S S S E  S S   E. S +E  E +S   E  S E   S S
|-------------------------------|-------------------------------|
|-------------------------------|-------------------------------|
|-------------------------------|-------------------------------|
|-0h9-9-9-9------0h9-9-9-9------|-5--7-(7)-9-(9)-12-9-9---9-9--|
|-0-7-7-7-7--7-7-0-7-7-7-7--0-0-|-3--5-(5)-7-(7)-10-7-7---7-7--|
|-------------------------------|-------------------------------|
|
|         ~~             ~~                            ~~~~~~
| S S S S E.   S S S S S E.   S   E. S +E  E +S   E  S S S E
|-------------------------------|-------------------------------|
|-------------------------------|-------------------------------|
|-7h9-9-9-9----9-7h9-9-9-9----7-|-5--7-(7)-9-(9)S12--9-9-9-9----|
|-------------------------------|-------------------------------|
|-------------------------------|-------------------------------|
|-------------------------------|-------------------------------|


  C#5                           A5 B5    C#5   E5    C#5
 4/4
            PM|           PM|                            PM|
  S S S S E S S S S S S E S S   E. S +E  E +S   E  S E   S S
|-----------------------------|-------------------------------||
|-----------------------------|-------------------------------||
|-----------------------------|-------------------------------||
|-0h9-9-9-9-----0h9-9-9-9-----|-5--7-(7)-9-(9)-12-9-9---9-9--||
|-0-7-7-7-7-7-7-0-7-7-7-7-0-0-|-3--5-(5)-7-(7)-10-7-7---7-7--||
|-----------------------------|-------------------------------||
|
|         ~             ~                            ~~~~~~
| S S s s Q     S S S S E S S   E. S +E  E +S   E  S S S E
|-----------------------------|-------------------------------||
|-----------------------------|-------------------------------||
|-7h9-9-9-9-----7h9-9-9-9-9-9-|-5--7-(7)-9-(9)S12--9-9-9-9----||
|-----------------------------|-------------------------------||
|-----------------------------|-------------------------------||
|-----------------------------|-------------------------------||


  C#5                             A5 B5    C#5   E5    C#5
 4/4
             PM|            PM|                            PM|
  S S S S E  S S S S S S E  S S   E. S +E  E +S   E  S E   S S
|-------------------------------|-------------------------------|
|-------------------------------|-------------------------------|
|-------------------------------|-------------------------------|
|-0h9-9-9-9------0h9-9-9-9------|-5--7-(7)-9-(9)-12-9-9---9-9--|
|-0-7-7-7-7--7-7-0-7-7-7-7--0-0-|-3--5-(5)-7-(7)-10-7-7---7-7--|
|-------------------------------|-------------------------------|
|
|         ~~             ~~                            ~~~~~~
| S S S S E.   S S S S S E.   S   E. S +E  E +S   E  S S S E
|-------------------------------|-------------------------------|
|-------------------------------|-------------------------------|
|-7h9-9-9-9----9-7h9-9-9-9----7-|-5--7-(7)-9-(9)S12--9-9-9-9----|
|-------------------------------|-------------------------------|
|-------------------------------|-------------------------------|
|-------------------------------|-------------------------------|


  C#5                           A5 B5    C#5   E5    C#5
 4/4
            PM|           PM|                            PM|
  S S S S E S S S S S S E S S   E. S +E  E +S   E  S E   S S
|-----------------------------|-------------------------------||
|-----------------------------|-------------------------------||
|-----------------------------|-------------------------------||
|-0h9-9-9-9-----0h9-9-9-9-----|-5--7-(7)-9-(9)-12-9-9---9-9--||
|-0-7-7-7-7-7-7-0-7-7-7-7-0-0-|-3--5-(5)-7-(7)-10-7-7---7-7--||
|-----------------------------|-------------------------------||
|
|         ~             ~                            ~~~~~~
| S S s s Q     S S S S E S S   E. S +E  E +S   E  S S S E
|-----------------------------|-------------------------------||
|-----------------------------|-------------------------------||
|-7h9-9-9-9-----7h9-9-9-9-9-9-|-5--7-(7)-9-(9)S12--9-9-9-9----||
|-----------------------------|-------------------------------||
|-----------------------------|-------------------------------||
|-----------------------------|-------------------------------||


 2nd Chorus
     Em/C   D5/AG5   Em/C            G
  Gtr II
  E  E    S S S  S S E   S E     E   E. S +E E +S S S S  E.       S
     |    | |    |   |   | |     |   |  |  | |  | |   |  |        |
     /    / /    /   /   / /     /   /  /  / /  / /   /  /        /

  Gtr III
  E.    S S S S  S S S S S S  E.     H          S S S S  S  S  S  S
|------10---8---10---8---7---------|---------------------------------|
|----------------------------10----|-8-------------------------------|
|-------7---5----7---5---4---------|---------------------------7-----|
|-----------------------------7----|-5----------------5--7s=9-----9s=|
|----------------------------------|--------------5h7----------------|
|----------------------------------|---------------------------------|
|
| Gtr IV
| E.    S S S S  S S S S S S  E.     H          S S S S  S  S  S  S
|------10---8---10---8---7---------|--------------------------10-----|
|----------------------------10----|-8----------------8-10S12----12s=|
|----------------------------------|--------------7h9----------------|
|----------------------------------|---------------------------------|
|----------------------------------|---------------------------------|
|----------------------------------|---------------------------------|


  Em/C                      Bm/G
   E S S S S E +S E S E E   E. S S S   E     +S E   S E   E
   | | |   | |  | | | | |   |  |   |   |      | |   | |   |
   / / /   / /  / / / / /   /  /   /   /      / /   / /   /

   Q     Q      H           W
|-------------------------|---------------------------------|
|-------------------------|---------------------------------|
|-------------------------|---------------------------------|
|--7----------------------|---------------------------------|
|-------------------------|---------------------------------|
|-------------------------|---------------------------------|
|
|  Q     Q      H           E. S S S a S a S  S S S E   s e
|-------------------------|---------------------------------|
|-10----------------------|---------------------------------|
|-------------------------|--------------7s9--7-------------|
|-------------------------|--------5-7s9----------9-----7-5-|
|-------------------------|----5h7--------------------------|
|-------------------------|---------------------------------|


  Em/C                         Bm/G
     E  S S S S E +S E S E E   E S S S S E +S E       S   E   E
     |  | |   | |  | | | | |   | | |   | |  | |       |   |   |
     /  / /   / /  / / / / /   / / /   / /  / /       /   /   /

                                            |---3---|     |---3---|
  A  H.                  Q     H            E   A E E   A E E   A E
|----------------------------|----------------------------------------|
|-8s10-----------------------|----------------------------------------|
|----------------------------|----------------------7---7h9-9---------|
|-5s=7-----------------------|------------------7h9-------------7h9---|
|----------------------------|----------------------------------------|
|----------------------------|----------------------------------------|
|
| A  H.                  Q     W
|----------------------------|----------------------------------------|
|-8s10-----------------------|----------------------------------------|
|----------------------------|----------------------------------------|
|----------------------------|----------------------------------------|
|----------------------------|----------------------------------------|
|----------------------------|----------------------------------------|


  Am
  E  S S S S E      +S   E S E E
  |  | |   | |       |   | | | |
  /  / /   / /       /   / / / /

  Gtr III                        G
  Q.         S  S   +H
|--------------------------------|
|--------------------------------|
|--------------------------------|
|-7-------------()---------|
|--------------------------------|
|--------------------------------|


  D  A/D   D     A/DD     D  A/D   D     A/DD
  E. S +E  E +S  E. E E   E. S +E  E +S  E. E E
  |  |  |  |  |  |  | |   |  |  |  |  |  |  | |
  /  /  /  /  /  /  / /   /  /  /  /  /  /  / /

 trs III, IV
  E. S +E  E +S  E. E E   E. S +E  E +S  E. E E
|-2--0-(0)-2-(2)-0--2-2-|-2--0-(0)-2-(2)-0--2-2--||
|-3--2-(2)-3-(3)-2--3-3-|-3--2-(2)-3-(3)-2--3-3--||
|-2--2-(2)-2-(2)-2--2-2-|-2--2-(2)-2-(2)-2--2-2--||
|-0--0-(0)-0-(0)-0--0-0-|-0--0-(0)-0-(0)-0--0-0--||
|-----------------------|------------------------||
|-----------------------|------------------------||


   Guitar Solo
    Gtrs I, V
                    ~~   PM|                          PMPM
    S S     s s     Q              S S     S  S E     S S
||--------------------------------------------------------|
||o-------------------------------------------------------|
||--7h9-----9-9-----9--------------7h9-----9--9-9-----9-9-|
||--0-9-----9-9-----9--------------0-9-----9--9-9---------|
||o-0h7-----7-7-----7----7--7------0h7-----7--7-7-----0-0-|
||--------------------------------------------------------|
|   S S     S S     E    S  S      S S     S  S E     S S
|
|   Gtr VI
|                                                  ~~~
|   E    A  E    A  S  S E      A  E    A  S  S S  E.
||--------------------------------------------------------|
||o-------------------------------------------------------|
||------14s16---14s16-12-------14s16---16s14-12-----------|
||------------------------------------------------14------|
||o-------------------------------------------------------|
||--------------------------------------------------------|
|
|   Gtr VI
|   E       E    a  S  S S  S      E    a  S  S S  E.
||--------------------------------------------------------|
||o--------/3---------------------/3----------------------|
||---------/4----4s=2--0----------/4----4p=2--0-----------|
||-------------------------(2)---------------------2------|
||o-------------------------------------------------------|
||--------------------------------------------------------|


                                        PM|
   E.       S +E     E    +S   E  S S S E
|----------------------------------------------||
|---------------------------------------------o||
|--5--------7-(7)----9----(9)S12--9-9-9-9------||
|--5--------7-(7)----9----(9)-12-9-9---9-9----||
|--3--------5-(5)----7----(7)-10-7-7---7-7---o||
|----------------------------------------------||
|  E.       S +E     E    +S   E  S E   S S
|
|                          ~~~~
|  |--3---|    |---3----|
|  E   E  E    E   E    E  H
|----------------------------------------------||
|---------------------------------------------o||
|-11----------14--11---------------------------||
|-----14-12------------12-14-------------------||
|---------------------------------------------o||
|----------------------------------------------||
|
|  |--3---|    |---3----|
|  E   E  E    E   E    E  H
|----------------------------------------------||
|---------------------------------------------o||
|----------------------------------------------||
|--4-----------7---4---------------------------||
|------7--5-------------5--7------------------o||
|----------------------------------------------||

[ Tab from: http://www.guitartabs.cc/tabs/b/black_sabbath/sabbath_bloody_sabbath_tab.html ]
                      ~~    PM|                           PMPM
  S S          s   s  Q                  S   S  S  S   E  S S
|-------------------------------------------------------------|
|-------------------------------------------------------------|
|-7h9----------9---9--9------------------7h==9--9--9---9--9-9-|
|-0-9----------9---9--9------------------0---9--9--9---9------|
|-0h7----------7---7--7-----7-7----------0h==7--7--7---7--0-0-|
|-------------------------------------------------------------|
| S S          S   S  E     S S          S   S  S  S   E  S S
|
|                        ~~~                       ~~~~~~~
| E    a      +S   S  S  E.      a      +S   S  S  S  +Q
|-------------------------------------------------------------|
|-------------------------------------------------------------|
|-----14pb16r(14)-12-14---------14pb16r(14)p12-14-------------|
|-----------------------14------------------------14-(14)-----|
|-------------------------------------------------------------|
|-------------------------------------------------------------|
|
|                        ~~~                       ~~~~~~~
| E    a      +S   S  S  E.      a      +S   S  S  S  +Q
|-------------------------------------------------------------|
|-------------------------------------------------------------|
|-----14pb16r(14)-12-14---------14pb16r(14)p12-14-------------|
|-----------------------14------------------------14-(14)-----|
|-------------------------------------------------------------|
|-------------------------------------------------------------|


                                                   PM|
   E.         S         +E     E     +S   E  S S S E
|-------------------------------------------------------|
|-------------------------------------------------------|
|--5----------7---------(7)----9-----(9)S12--9-9-9-9----|
|--5----------7---------(7)----9-----(9)-12-9-9---9-9--|
|--3----------5---------(5)----7-----(7)-10-7-7---7-7--|
|-------------------------------------------------------|
|  E.         S         +E     E     +S   E  S E   S S
|
|                                 ~~~~~~~~
|  |---3----|            |---3----|
|  E     E  E    A      +E   E    E  +H
|-------------------------------------------------------|
|-15b17-15-12-------------------------------------------|
|---------------14pb16r(14)p12--------------------------|
|--------------------------------14-(14)----------------|
|-------------------------------------------------------|
|-------------------------------------------------------|
|
|                                 ~~~~~~~~
|  |---3----|            |---3----|
|  E     E  E    A      +E   E    E  +H
|-------------------------------------------------------|
|-15b17-15-12-------------------------------------------|
|---------------14pb16r(14)p12--------------------------|
|--------------------------------14-(14)----------------|
|-------------------------------------------------------|
|-------------------------------------------------------|


  Gtrs I, V
                             ~~~~~ PM|                                  PMPM
  S S  s      s              Q           S      S       S  S      E     S S
|---------------------------------------------------------------------------|
|---------------------------------------------------------------------------|
|-7h9--9------9--------------9-----------7h=====9-------9--9------9-----9-9-|
|-0-9--9------9--------------9-----------0------9-------9--9------9---------|
|-0h7--7------7--------------7-----7--7--0h=====7-------7--7------7-----0-0-|
|---------------------------------------------------------------------------|
| S S  S      S              E     S  S  S      S       S  S      E     S S
|
| E    S      s      a      +S   S E     S      S       S  S  a  +S   S E
|-----15b17==15-----15r====(15)p12------15b17==15------15-15-15r(15)p12-----|
|---------------------------------------------------------------------------|
|---------------------------------------------------------------------------|
|---------------------------------------------------------------------------|
|---------------------------------------------------------------------------|
|---------------------------------------------------------------------------|
|
| E    S      S      a      +S   S S  S  S      s       s  s  a  +S   S E
|---------------------------------------------------------------------------|
|---------------------------------------------------------------------------|
|-----14pb15-14pb16-14pb16r(14)-12---12-14-----14pb16==14-14-14r(14)p12-----|
|---------------------------------------------------------------------------|
|---------------------------------------------------------------------------|
|---------------------------------------------------------------------------|


                                                   PM|
   E.         S         +E     E     +S   E  S S S E
|-------------------------------------------------------|
|-------------------------------------------------------|
|--5----------7---------(7)----9-----(9)S12--9-9-9-9----|
|--5----------7---------(7)----9-----(9)-12-9-9---9-9--|
|--3----------5---------(5)----7-----(7)-10-7-7---7-7--|
|-------------------------------------------------------|
|  E.         S         +E     E     +S   E  S E   S S
|
|                                 ~~~~~~~~
|  |---3----|            |---3----|
|  E     E  E    A      +E   E    E  +H
|-------------------------------------------------------|
|-15b17-15-12-------------------------------------------|
|---------------14pb16r(14)-12--------------------------|
|--------------------------------14-(14)----------------|
|-------------------------------------------------------|
|-------------------------------------------------------|
|
|                                 ~~~~~~~~
|  |---3----|            |---3----|
|  E     E  E    A      +E   E    E  +H
|-------------------------------------------------------|
|-15b17-15-12-------------------------------------------|
|---------------14pb16r(14)-12--------------------------|
|--------------------------------14-(14)----------------|
|-------------------------------------------------------|
|-------------------------------------------------------|


  Gtrs I, V
          ~ PM|           PMPM                           PM|
  S S s s Q     S S S S E S S   E. S +E  E +S   E  S S S E
|-----------------------------|------------------------------|
|-----------------------------|------------------------------|
|-7h9-9-9-9-----7h9-9-9-9-9-9-|-5--7-(7)-9-(9)S12--9-9-9-9---|
|-0-9-9-9-9-----0-9-9-9-9-----|-5--7-(7)-9-(9)-12-9-9---9-9-|
|-0h7-7-7-7-7-7-0h7-7-7-7-0-0-|-3--5-(5)-7-(7)-10-7-7---7-7-|
|-----------------------------|------------------------------|
  S S S S E S S S S S S E S S   E. S +E  E +S   E  S E   S S


   Interlude
    Gtr I
      E.    S S   S    E   +S    S S   S   E    S  S
||---------------------------------------------------|
||o--------------------------------------------------|
||---14----14----14---14--(14)--14----14--14---------|
||---14----14----14---14--(14)--14----14--14---14-14-|
||o--12----12----12---12--(12)--14----12--12---12-12-|
||--(12)--(12)--(10)-(12)-(12)-(12)--(12)-12---------|
|
|   Gtr V
|     E S   S S   S    E   +S    S S   S   E a  S  S
||---------------------------------------------------|
||o--------------------------------------------------|
||---------------------------------------------------|
||----7s9---7s9---5----7---(7)---7s9---5---7-7s=9--7-|
||o--------------------------------------------------|
||---------------------------------------------------|


 1.                                2.
   E. S +E   E  +S  E.  E   E        E. S +E   E  +S  E.  E   E     W
|--------------------------------||------------------------------|-------||
|-------------------------------o||------------------------------|-------||
|--9--7-(7)--9--(9)-7---9---7/---||--9--7-(7)--9--(9)-7---9---7--|--4----||
|--9--7-(7)--9--(9)-7---9---7/---||--9--7-(7)--9--(9)-7---9---7--|--4----||
|--7--5-(5)--7--(7)-5---7---5/--o||--7--5-(5)--7--(7)-5---7---5--|--2----||
|-(7)-5-(5)--7--(7)-5--(7)-(5)/--||-(7)-5-(5)--7--(7)-5--(7)-(5)-|-(2)---||
|
|  E. S +E   E  +S  E.  E   E        E. S +E   E  +S  E.  E   E     W
|--------------------------------||------------------------------|-------||
|-------------------------------o||------------------------------|-------||
|--4-----------------------------||--4---------------------------|-------||
|--5--7-(7)--9--(9)-7---9---7/---||--5--7-(7)--9--(9)-7---9---7/-|--4----||
|--7--9-(9)-10-(10)-9--10---9/--o||--7--9-(9)-10-(10)-9--10---9/-|--2----||
|--------------------------------||------------------------------|-------||


   Breakdown                              Bridge
    $
    Gtrs I, V
    PM|           PM----|                  PM|           PM----|
    S S S S S S S S +S  S S S S E.         S S S S S S S S +S  S S S S E.
||----------------------------------||-||------------------------------------|
||o--------------------------------o||-||o-----------------------------------|
||----------------------------------||-||------------------------------------|
||----------------------------------||-||------------------------------------|
||o-----5s4-5s4-5---------5s4-5-6--o||-||o-----5s4-5s4-5---------5s4-5-6-----|
||--0-0-3s2-3s2-3-0-(0)-0-3s2-3-4---||-||--0-0-3s2-3s2-3-0-(0)-0-3s2-3-4-----|


  PM|           PM----|            PM|           PM----|
  S S S S S S S S +S  S S S S E.   S S S S S S S S +S  S S S S E.
|--------------------------------|-----------------------------------|
|--------------------------------|-----------------------------------|
|--------------------------------|-----------------------------------|
|--------------------------------|-----------------------------------|
|-----5s4-5s4-5---------5s4-5-6--|-----5s4-5s4-5---------5s4-5-6-----|
|-0-0-3s2-3s2-3-0-(0)-0-3s2-3-4--|-0-0-3s2-3s2-3-0-(0)-0-3s2-3-4-----|


  1.                                2.
  PM|           PM----|              PM|           PM----|
  S S S S S S S S +S  S S S S E.     S S S S S S S S +S  S S S S E T T
|---------------------------------||--------------------------------------||
|--------------------------------o||--------------------------------------||
|---------------------------------||--------------------------------------||
|---------------------------------||-------------------------------5h7----||
|-----5s4-5s4-5---------5s4-5-6--o||-----5s4-5s4-5---------5s4---6--------||
|-0-0-3s2-3s2-3-0-(0)-0-3s2-3-4---||-0-0-----------0-(0)-0-----3----------||


 Instumental Break
  Gtr I
  S S S S S S S S  S   S  S S +E. T T   S S S S S S S S  S   S  S S +E. T T
|-------------------------------------|---------------------------------------|
|-------------------------------------|---------------------------------------|
|-------------------------------------|---------------------------------------|
|-9-9-9-7-9-9---9------7----5-(5)-5h7-|-9-9-9-7-9-9---9------7----5-(5)-5h7---|
|-------------------------------------|---------------------------------------|
|-------------------------------------|---------------------------------------|
|
| Gtr V
| S S S S S S S S +S   E    S +E. T T   S S S S S S S S +S   E    S +E. T T
|-------------------------------------|---------------------------------------|
|-------------------------------------|---------------------------------------|
|-------------------------------------|---------------------------------------|
|---------------9-(9)-7---5-(5)-----|---------------9-(9)-7---5-(5)-------|
|-7-7-7-5-7-7---7-(7)-5---3-(3)-3h5-|-7-7-7-5-7-7---7-(7)-5---3-(3)-3h5---|
|-------------------------------------|---------------------------------------|


                                TD.S. al Coda
  S S S S S S S S  S   S  S S  S  E  T T   W
|----------------------------------------|-------||
|----------------------------------------|-------||
|----------------------------------------|-------||
|-9-9-9-7-9-9---9------7----5-----7--4-4-|-4-----||
|----------------------------------------|-------||
|----------------------------------------|-------||
|
| S S S S S S S S +S   E    S +S  E.       W
|----------------------------------------|-------||
|----------------------------------------|-------||
|----------------------------------------|-------||
|---------------9-(9)-7---5-(5)-7------|-4-----||
|-7-7-7-5-7-7---7-(7)-5---3-(3)-5------|-2-----||
|----------------------------------------|-------||


             Outro
           Double Time Q.=144
  &
 9/8         12/8
  W    +E     W.                W.              W.
|----------||-----------------|---------------|--------------------------|
|----------||-----------------|---------------|--------------------------|
|----------||-----------------|-x------------|-x-----------------------|
|-4----(4)-||-4---------------|-x------------|-x-----------------------|
|----------||-----------------|-x------------|-x-----------------------|
|----------||-----------------|---------------|--------------------------|
|
|                     ~~
| W    +E     H.      H.        W               Q   E E E E Q  E Q  E
|----------||-----------------|---------------|--------------------------|
|----------||-----------------|---------------|--------------------------|
|----------||-----------------|---------------|-4---4-4-----4--4---------|
|-4----(4)-||-4---------------|---------------|-4---4-4-----4--4---------|
|-2----(2)-||-2-------2-------|---------------|-2---2-2p0---2--2----0----|
|----------||-----------------|---------------|-----------2--------------|


  W.                      W.
|-----------------------|-----------------------|
|-----------------------|-----------------------|
|-x--------------------|-x--------------------|
|-x--------------------|-x--------------------|
|-x--------------------|-x--------------------|
|-----------------------|-----------------------|
|
| Q   E E E E Q  E Q  E   Q   E E E E Q  E Q  E
|-----------------------|-----------------------|
|-----------------------|-----------------------|
|-4---4-4-----4--4------|-4---4-4-----4--4------|
|-4---4-4-----4--4------|-4---4-4-----4--4------|
|-2---2-2p0---2--2----0-|-2---2-2p0---2--2----0-|
|-----------2-----------|-----------2-----------|


  W.                      W.
|-----------------------|--------------------------|
|-----------------------|--------------------------|
|-x--------------------|-x-----------------------|
|-x--------------------|-x-----------------------|
|-x--------------------|-x-----------------------|
|-----------------------|--------------------------|
|
| Q   E E E E Q  E Q  E   Q   E E E E Q  E Q  E
|-----------------------|--------------------------|
|-----------------------|--------------------------|
|-4---4-4-----4--4------|-4---4-4-----4--4---------|
|-4---4-4-----4--4------|-4---4-4-----4--4---------|
|-2---2-2p0---2--2----0-|-2---2-2p0---2--2----0----|
|-----------2-----------|-----------2--------------|


  W.                      W.                      +W.
|-----------------------|-----------------------|-------------------------||
|-----------------------|-----------------------|-------------------------||
|-x--------------------|-4---------------------|-(4)---------------------||
|-x--------------------|-4---------------------|-(4)---------------------||
|-x--------------------|-2---------------------|-(2)---------------------||
|-----------------------|-----------------------|-------------------------||
|
| Q   E E E E Q  E Q  E   Q   E E E E Q  E Q  E    Q   E E E E Q  E Q  E
|-----------------------|-----------------------|-------------------------||
|-----------------------|-----------------------|-------------------------||
|-4---4-4-----4--4------|-4---4-4-----4--4------|--4---4-4-----4--4-------||
|-4---4-4-----4--4------|-4---4-4-----4--4------|--4---4-4-----4--4-------||
|-2---2-2p0---2--2----0-|-2---2-2p0---2--2----0-|--2---2-2p0---2--2----0--||
|-----------2-----------|-----------2-----------|------------2------------||


 Outro Guitar Solo
  Q   E E E E Q  E Q   E   Q   E E E E Q     E Q      E
|------------------------|------------------------------|
|------------------------|------------------------------|
|-4---4-4-----4--4-------|-4---4-4-----4-----4----------|
|-4---4-4-----4--4-------|-4---4-4-----4-----4----------|
|-2---2-2p0---2--2-----0-|-2---2-2p0---2-----2--------0-|
|-----------2------------|-----------2------------------|
|
| Q.    E E E Q  E Q.      Q.    E E E Q     E E    E E
|------------------------|----------------------------7-|
|------------------------|-------------------7------7---|
|-----------7------------|-----------7-9b11----9b11-----|
|-------7h9---9--7-------|-------7h9--------------------|
|------------------------|------------------------------|
|------------------------|------------------------------|


   Q      E        E  E  E Q         E   Q      E
|---------------------------------------------------------|
|---------------------------------------------------------|
|--4------4--------4-------4---------4--------------------|
|--4------4--------4-------4---------4--------------------|
|--2------2--------2p=0----2---------2----------0---------|
|------------------------2--------------------------------|
|
|  Q      E       +Q     Q    Q         +E   E  E
|---------------------------------------------------------|
|-10b11--10pb12==(10)r==10---10pb12====(10)r10-10pb12=====|
|---------------------------------------------------------|
|---------------------------------------------------------|
|---------------------------------------------------------|
|---------------------------------------------------------|


   Q  E  E E  E        Q   E  Q   E
|---------------------------------------|
|---------------------------------------|
|--4--4--4-------------4---4------------|
|--4--4--4-------------4---4------------|
|--2--2--2p0-----------2---2------0-----|
|-------------2-------------------------|
|
|  Q.    Q    E       +Q.     Q   E
|---------------------------------------|
|-10r===10---10pb12==(10)r===10--10pb12r|
|---------------------------------------|
|---------------------------------------|
|---------------------------------------|
|---------------------------------------|


    Q   E  E  E E   Q   E Q     E    Q   E   E E E Q  E Q   E
|---------------------------------|------------------------------|
|---------------------------------|------------------------------|
|---4---4--4--------4---4---------|--4---4---4-----4--4----------|
|---4---4--4--------4---4---------|--4---4---4-----4--4----------|
|---2---2--2p=0-----2---2-------0-|--2---2---2p0---2--2-----0----|
|---------------2-----------------|--------------2---------------|
|
|                                    ~~~
|                   |--4--|
|  +Q   E +Q    S S E E E E E A E   +Q.    A Q   E Q  E E E E
|---------------------------------|------------------------------|
|-(10)--7-(7)---9p7---------------|------------------------------|
|-------------------9p7---7---7s9-|-(9)----9p7-----7--7----------|
|-----------------------9---------|--------------9------9p7------|
|---------------------------------|-------------------------9----|
|---------------------------------|------------------------------|


  Q  E     E  E   E Q     E Q  E
|--------------------------------|
|--------------------------------|
|-4--4-----4--------4-----4------|
|-4--4-----4--------4-----4------|
|-2--2-----2p=0-----2-----2----0-|
|-----------------2--------------|
|
|                   ~~~~~~~~~~~~~~
| Q  E    +E  Q     H.
|--------------------------------|
|--------------------------------|
|--------------------------------|
|-7--9b11-(9)-7b9---7b9==========|
|--------------------------------|
|--------------------------------|


   Q   E E E E  Q   E Q   E   Q   E E E E Q  E  Q    E
|---------------------------|---------------------------|
|---------------------------|---------------------------|
|--4---4-4------4---4-------|-4---4-4-----4--4----------|
|--4---4-4------4---4-------|-4---4-4-----4--4----------|
|--2---2-2p0----2---2-----0-|-2---2-2p0---2--2-------0--|
|------------2--------------|-----------2---------------|
|
|~~~~~~
|                   |--4--|
| +H.          +Q   E E E E   Q.    Q   E Q  E +E  E E
|---------------------------|---------------------------|
|---------------------------|---------------------------|
|---------------------------|---------------------------|
|-(7)r=========(7)----2p0---|-4-----4---4-4--4-(4)------|
|-------------------------0-|-2-----2---2-2--2-(2)-0-2--|
|---------------------------|---------------------------|


  Q   E E E E Q   E  Q   E   Q   E E    E E Q   E     Q   E
|--------------------------|--------------------------------|
|--------------------------|--------------------------------|
|-4---4-4-----4---4--------|-4---4-4--------4---4-----------|
|-4---4-4-----4---4--------|-4---4-4--------4---4-----------|
|-2---2-2p0---2---2------0-|-2---2-2p===0---2---2---------0-|
|-----------2--------------|--------------2-----------------|
|
| ~~~~~~~~~~~~~~~~~~~~~~~~~~~~~~~~~~~~~~
| Q.    Q   E Q.     Q.      Q.    Q.       E E E    +Q   E
|--------------------------|--------------------------------|
|--------------------------|--------------------------------|
|--------------------------|--------------------------------|
|-4-----4---4--------------|-4-----4pb5-----2h4-4pb6-(4)--0-|
|-2-----2---2-2-----[2]----|--------------------------------|
|--------------------------|--------------------------------|


  Q   E E E E Q  E Q  E     Q   E E E E Q  E Q  E     5x
|-----------------------||----------------------------||
|-----------------------||o--------------------------o||
|-4---4-4-----4--4------||--4---4-4-----4--4----------||
|-4---4-4-----4--4------||--4---4-4-----4--4----------||
|-2---2-2p0---2--2----0-||o-2---2-2p0---2--2----0----o||
|-----------2-----------||------------2---------------||
|
| W.                        W.                        5x
|-----------------------||----------------------------||
|-----------------------||o--------------------------o||
|-x--------------------||--x------------------------||
|-x--------------------||--x------------------------||
|-x--------------------||o-x-----------------------o||
|-----------------------||----------------------------||


Duration Legend
---------------
W - whole; H - half; Q - quarter; E - 8th; S - 16th; T - 32nd; X - 64th; a - acciaccatura
+ - note tied to previous; . - note dotted; .. - note double dotted
Uncapitalized letters represent notes that are staccato (1/2 duration)
Irregular groupings are notated above the duration line
Duration letters will always appear directly above the note/fret number it represents the
duration for.  Duration letters with no fret number below them represent rests.  Multi-
bar rests are notated in the form Wxn, where n is the number of bars to rest for.  Low
melody durations appear below the staff

Tablature Legend
----------------
 h   - hammer-on
 p   - pull-off
 b   - bend
 pb  - pre-bend
 r   - bend release (if no number after the r, then release immediately)
 /  - slide into or out of (from/to "nowhere")
 s   - legato slide
 S   - shift slide
  - natural harmonic
[n]  - artificial harmonic
n(n) - tapped harmonic
 ~   - vibrato
 tr  - trill
 T   - tap
 TP  - trem. picking
 PM  - palm muting
n/  - tremolo bar dip; n = amount to dip
 n  - tremolo bar down
 n/  - tremolo bar up
/n  - tremolo bar inverted dip
 =   - hold bend; also acts as connecting device for hammers/pulls
   - volume swell (louder/softer)
 x   - on rhythm slash represents muted slash
 o   - on rhythm slash represents single note slash

Misc Legend
-----------
 |  - bar
||  - double bar
||o - repeat start
o|| - repeat end
*|  - double bar (ending)
 :  - bar (freetime)
 $  - Segno
 &  - Coda
Tempo markers -  = BPM(8/16=s8/s16), where s8 = swing 8ths, s16 = swing 16ths
Comments